» » »

Bad Dogs, Him In Her Tabs (ver.3)

Artists:  A B C D E F G H I J K L M N O P Q R S T U V W X Y Z # 

Him In Her Tabs (ver.3)

Bad Dogs Tabs
Rating:
0/5 (0 votes)
Him In Her lessons Tabs too difficult? Try these video lessons and learn fast
                I've got the solo for this one and its not that hard

Intro
e|---------------------------|
B|---------------------------|
G|---------------------------|
D|-2--4-4--3--2-2--4-4--3--2-|
A|-2--4-4--3--2-2--4-4--3--2-|
E|-0--2-2--1--0-0--2-2--1--0-|

Verse play 3x
e|-----------------------------|
B|-----------------------------|
G|-----------------------------|
D|-2-2--4-4-3--2--4-8-8-8-8--2-|
A|-2-2--4-4-3--2--4-8-8-8-8--2-|
E|-0-0--2-2-1--0--2-6-6-6-6--0-|

Chorus play 8x
e|--------------------------------|
B|--------------------------------|
G|--------------------------------|
D|-2-2--4-4-3--2--4--4-8-8-8-8--2-|
A|-2-2--4-4-3--2--4--4-8-8-8-8--2-|
E|-0-0--2-2-1--0--2--2-6-6-6-6--0-|

Solo 1
e|-------------------------------------------|
B|-------------------------------------------|
G|--(4)---4--4-4-4p2-------------------------|
D|-------------------4p2p0-0-0-4p2p0h2p0h2h4-|
A|-------------------------------------------|
E|-------------------------------------------|

Verse play 3x
e|--------------------------------|
B|--------------------------------|
G|--------------------------------|
D|-2--2---4-4-3---2--4-8-8-8-8--2-|
A|-2--2---4-4-3---2--4-8-8-8-8--2-|
E|-0--0---2-2-1---0--2-6-6-6-6--0-|

Chorus play 8x
e|---------------------------------|
B|---------------------------------|
G|---------------------------------|
D|--2-2--4-4-3--2--4--4-8-8-8-8--2-|
A|--2-2--4-4-3--2--4--4-8-8-8-8--2-|
E|--0-0--2-2-1--0--2--2-6-6-6-6--0-|

solo 2
e|-----------------------------------------------------------------------------------------------|
B|--4--2------------2h4-4-4-4-4-------(5)-(5)-(5)-5p30-5p3p0-5p3p0-5p3p0-5p3p0-5p3p0-5p3p0-5p3p0-|
G|-------4p2----2h4-------------4/9-9------------------------------------------------------------|
D|----------4p2----------------------------------------------------------------------------------|
A|-----------------------------------------------------------------------------------------------|
E|-----------------------------------------------------------------------------------------------|

End
e-------------------------------------------|
B-------------------------------------------|
G-------------------------------------------|
D-2-2--4-4-3--2--4--4-8-8-8-8--2-2--4\3-----|
A-2-2--4-4-3--2--4--4-8-8-8-8--2-2--4\3--2--|
E-0-0--2-2-1--0--2--2-6-6-6-6--0-0--2\1--0--|
            
Submit corrections

comments powered by Disqus
↑ Back to top | Bad Dogs Tabs for Him In Her. Lyrics for acoustic guitar and electric guitar. Tablatures and chords are parodies/interpretations of the original songs. You may use it for private study, scholarship, research or language learning purposes only