» » »

Him In Her Bass tabs (ver.1)

Artists:  A B C D E F G H I J K L M N O P Q R S T U V W X Y Z # 

Him In Her Bass tabs (ver.1)

Bad Dogs
Rating:
0/5 (0 votes)

Tabs too difficult? Try these video lessons and learn fast.
                Him in Her(Bass)

Standard Tuning
intro
G-----------------------------|
D-----------------------------|
A-----------------------------|
E-0---2--2--1---0-0--2-2-1--0-|

verse
G----------------------------|
D----------------------------|
A----------------------------|
E-0-0--2-2-1--0--2/8-8-8-8-0-|

chorus
G------------------------------|
D------------------------------|
A------------------------------|
E-0-0--2-2-1--0--2-2/8-8-8-8-0-|

verse
G----------------------------|
D----------------------------|
A----------------------------|
E-0-0--2-2-1--0--2/8-8-8-8-0-|

chorus\outro
G-----------------------------------------------------|
D-----------------------------------------------------|
A-----------------------------------------------------|
E-0-0--2-2-1--0--2-2/8-8-8-8-0----0-0--2-2-1--0-------|

That is the whole song on bass guitar.
            
Tabs too difficult? Try these video lessons and learn fast.




comments powered by Disqus
↑ Back to top | Tablatures and chords are parodies/interpretations of the original songs. You may use it for private study, scholarship, research or language learning purposes only