» » »

Feelings For The Circumference Tabs (ver.1)

Artists:  A B C D E F G H I J K L M N O P Q R S T U V W X Y Z # 

Feelings For The Circumference Tabs (ver.1)

Bad Dogs
Rating:
0/5 (0 votes)

Hard to play? Try these video lessons and learn fast.
                Bad dogs - feelings for the circumference


Intro\verse\chorus
------------------------------------------------------|
------------------------------------------------------|
------------------------------------------------------|
------------------------------------------------------|
------------------------------------------------------|
-0-3-5-6-5-3---0-3-5-6-5-3---0-3-5-6-5-3--5-6-7-6-5---|

solo
--------------------------------------------------------------|
-17-14-16-17-16-14--------------17-14-16-17-16-14-------------|
-------------------17-15-14-----------------------17-15-14----|
----------------------------17-----------------------------17-|
--------------------------------------------------------------|
--------------------------------------------------------------|


use heavy distortion throughout the song
            
Hard to play? Try these video lessons and learn fast. | Correct




comments powered by Disqus
↑ Back to top | Tablatures and chords are parodies/interpretations of the original songs. You may use it for private study, scholarship, research or language learning purposes only