» » »

Bad Dogs, Duck Tabs (ver.1)

Artists:  A B C D E F G H I J K L M N O P Q R S T U V W X Y Z # 

Duck Tabs (ver.1)

Bad Dogs Tabs
Rating:
0/5 (0 votes)
Duck lessons Tabs too difficult? Try these video lessons and learn fast
                Intro\Verse play x10
e|-------------------------------|
B|-------------------------------|
G|----------------------6--6--6--|
D|-4-4-5----------------6--6--6--|
A|-------4--6-----------4--4--4--|
E|-------------7h9p7-------------|

chorus play 3x
e|---------------------------------------------------------------------|
G|---------------------------------------------------------------------|
B|-6-6-6-6-6-6-6-6--2-2-2-2-2-2-2-2-------------------4-4-4-4-4-4-4-4--|
D|-6-6-6-6-6-6-6-6--2-2-2-2-2-2-2-2--2-2-2-2-2-2-2-2--4-4-4-4-4-4-4-4--|
A|-4-4-4-4-4-4-4-4--0-0-0-0-0-0-0-0--2-2-2-2-2-2-2-2--2-2-2-2-2-2-2-2--|
E|-----------------------------------0-0-0-0-0-0-0-0-------------------|

Verse play 8x
e|-------------------------------|
B|-------------------------------|
G|----------------------6--6--6--|
D|-4-4-5----------------6--6--6--|
A|-------4--6-----------4--4--4--|
E|-------------7h9p7-------------|

chorus play 3x
e|---------------------------------------------------------------------|
G|---------------------------------------------------------------------|
B|-6-6-6-6-6-6-6-6--2-2-2-2-2-2-2-2-------------------4-4-4-4-4-4-4-4--|
D|-6-6-6-6-6-6-6-6--2-2-2-2-2-2-2-2--2-2-2-2-2-2-2-2--4-4-4-4-4-4-4-4--|
A|-4-4-4-4-4-4-4-4--0-0-0-0-0-0-0-0--2-2-2-2-2-2-2-2--2-2-2-2-2-2-2-2--|
E|-----------------------------------0-0-0-0-0-0-0-0-------------------|

play 3x
e|-----------------------------------|
G|-----------------------------------|
B|-6-6-6-6-6-6-6-6--2-2-2-2-2-2-2-2--|
D|-6-6-6-6-6-6-6-6--2-2-2-2-2-2-2-2--|
A|-4-4-4-4-4-4-4-4--0-0-0-0-0-0-0-0--|
E|-----------------------------------|

solo play 1x(let last note ring for 5 seconds)
e|--------------7-7-7-----------------------------------------7-7-7-------------|
B|-4-4-4--5-5-5-------4h5p4h5----4-4-5-----------4-4-4--5-5-5-------4h5p4h5-----|
G|-----------------------------4-------4-6----------------------------------4-4-|
D|-----------------------------------------7h9p7--------------------------------|
A|------------------------------------------------------------------------------|
E|------------------------------------------------------------------------------|

chorus play 3x
e|---------------------------------------------------------------------|
G|---------------------------------------------------------------------|
B|-6-6-6-6-6-6-6-6--2-2-2-2-2-2-2-2-------------------4-4-4-4-4-4-4-4--|
D|-6-6-6-6-6-6-6-6--2-2-2-2-2-2-2-2--2-2-2-2-2-2-2-2--4-4-4-4-4-4-4-4--|
A|-4-4-4-4-4-4-4-4--0-0-0-0-0-0-0-0--2-2-2-2-2-2-2-2--2-2-2-2-2-2-2-2--|
E|-----------------------------------0-0-0-0-0-0-0-0-------------------|

play 3x
e|-----------------------------------|
G|-----------------------------------|
B|-6-6-6-6-6-6-6-6--2-2-2-2-2-2-2-2--|
D|-6-6-6-6-6-6-6-6--2-2-2-2-2-2-2-2--|
A|-4-4-4-4-4-4-4-4--0-0-0-0-0-0-0-0--|
E|-----------------------------------|
            

comments powered by Disqus
↑ Back to top | Bad Dogs Tabs for Duck. Lyrics for acoustic guitar and electric guitar. Tablatures and chords are parodies/interpretations of the original songs. You may use it for private study, scholarship, research or language learning purposes only