» » »

Blurthy Bass tabs (ver.1)

Artists:  A B C D E F G H I J K L M N O P Q R S T U V W X Y Z # 

Blurthy Bass tabs (ver.1)

Bad Dogs
Rating:
0/5 (0 votes)

Hard to play? Try these video lessons and learn fast.
                

G|-------------------------------------------|
D|-------------------------------------------|
A|-------------------------------------------|
E|-0-2--4-0-4--2-0-4-0--4-2-4-0--4-0-2-4-0-4-|

G|----------------------------------------------------|
D|----------------------------------------------------|
A|----------------------------------------------------|
E|-0-2-0--4-0-4-0-2--0-4-0-4-0-2--0-4-0-4-0-2-0-4-0-4-|


G|----------------------------------------------------------------------|
D|----------------------------------------------------------------------|
A|---2---4---0-----4------------0-4----2---4---0---0--------------------|
E|-------------0-4---2---0---4------0-----------------4---0---2---4---0-|


G|-------------------------------------------|
D|-------------------------------------------|
A|-------------------------------------------|
E|-0-2--4-0-4--2-0-4-0--4-2-4-0--4-0-2-4-0-4-|


G|----------------------------------------------------------------------|
D|----------------------------------------------------------------------|
A|---2---4---0-----4------------0-4----2---4---0---0--------------------|
E|-------------0-4---2---0---4------0-----------------4---0---2---4---0-|\
            
Hard to play? Try these video lessons and learn fast. | Correct




comments powered by Disqus
↑ Back to top | Tablatures and chords are parodies/interpretations of the original songs. You may use it for private study, scholarship, research or language learning purposes only