» » »

Blood On The Floor Bass tabs (ver.2)

Artists:  A B C D E F G H I J K L M N O P Q R S T U V W X Y Z # 

Blood On The Floor Bass tabs (ver.2)

Bad Dogs
Rating:
0/5 (0 votes)

Hard to play? Try these video lessons and learn fast.
                Bad Dogs
Blood on the floor(Bass)

Normal tuning

Intro(only Bass)
----------------------------|
----------------------------|
----------------------------|
-3-2-0-1-0-4-3-0-0-2--0-0-1-|

Verse 1 play 15 times
-----------------------------|
-----------------------------|
-----------------------------|
-3-2-0-1-0-4-3-0--0-2--0-0-1-|

Chorus play 15 times
-----------------------|
-----------------------|
-----------------------|
-2-4-4-0-2--0-0--4-2-0-|

Verse 2 play 15 times
-----------------------------|
-----------------------------|
-----------------------------|
-3-2-0-1-0-4-3-0--0-2--0-0-1-|

Chorus play 15 times
-----------------------|
-----------------------|
-----------------------|
-2-4-4-0-2--0-0--4-2-0-|

Verse 3 play 15 times
-----------------------------|
-----------------------------|
-----------------------------|
-3-2-0-1-0-4-3-0--0-2--0-0-1-|

Chorus play 15 times
-----------------------|
-----------------------|
-----------------------|
-2-4-4-0-2--0-0--4-2-0-|

Outro
-------------------------------|
-------------------------------|
-------------------------------|
----0------0------0------0-----|
            
Hard to play? Try these video lessons and learn fast. | Correct




comments powered by Disqus
↑ Back to top | Tablatures and chords are parodies/interpretations of the original songs. You may use it for private study, scholarship, research or language learning purposes only