» » »

Bad Company, Smokin 4 Bass tabs (ver.1)

Artists:  A B C D E F G H I J K L M N O P Q R S T U V W X Y Z # 

Smokin 4 Bass tabs (ver.1)

Bad Company Tabs
 Rating:
4/5 (4 votes)
Smokin 4 lessons Tabs too difficult? Try these video lessons and learn fast
                "(5)
Standard Tuning 
x= amount of times repeated 
/= slide

Intro 

G------------------------| 
D------------------------|x2 
A-5-5-5-5-5-5-5-5--3-----| 
E---------------------5--| 

First Verse 0:08
 "I've seen the"....
G-------------------------------------------------------------------------| 
D-------3---------------3------------------3------------------3-----------| 
A---3-5---5-55-55---3-5---5-55-55------3-5---5-55-55------3-5---5-55-55/0-| 
E-5------------3--5---------------3--5---------------3--5-----------------| 
 0:26
G------------------------------------| 
D------------------------------------| 
A---3-5----------------------3-5-6-7-| 
E-5-----3-33-3-5-55-5-3-33-3---------| 

Chorus 0:36 
 "My Smokin 45"...
G--------------------------| 
D--------------------------|
A--------1-11-1------------| 
E-1-11-1--------1-11-1-6/0-| 

Second Verse 0:43  
 "Ten thousand dollars"...
G-------------------------------------------------------------------------| 
D-------3------------------3---------------3------------------3-----------| 
A---3-5---5-55-55------3-5---5-55-55---3-5---5-55-55------3-5---5-55-55/0-| 
E-5---------------3--5------------3--5---------------3--5-----------------| 
 1:01
G-----------------------------------------------------2-----------| 
D-------------------------------------------------2-3-----------2-| 
A---3-5-----------------------------------3-4-5---------0---2-3---| 
E-5-----3-33-3-5-5-5-55-5-3-33-3-5-5-5-55-------------------------|  
 1:15
G-------------------------| 
D-------------------------| 
A----00-11-22-33-55-66-77-| 
E-33----------------------| 

Second Chorus 1:20 
"My Smokin 45"...
G------------------------| 
D------------------------| 
A--------1-11-1--------1-| 
E-1-11-1--------1-11-1---| 

Solo 1:28 

G-------------------------------------------------------------------------| 
D-------3------------------3---------------3------------------3-----------| 
A---3-5---5-55-55------3-5---5-55-55---3-5---5-55-55------3-5---5-55-55/0-| 
E-5---------------3--5------------3--5---------------3--5-----------------| 
 

Third Chorus 2:04 
"My Smokin 45"....
G-------------------------------------------| 
D-------------------------------------------| 
A--------1-11-1--------1-11-1--------1-11-1-| 
E-1-11-1--------1-11-1--------1-11-1--------|

Outro 2:17
 "My Smokin 45"...
G----------------------------------------------------| 
D----------------------------------------------------|x5 
A--------1-1-1-11-1--------1-1-1-11-1-------1-13-4-6-| 
E-1-11-1------------1-11-1------------1-11-1---------| 

Please rate and enjoy!!!
"            
Submit corrections

comments powered by Disqus
↑ Back to top | Bad Company Bass for Smokin 4. Lyrics for acoustic guitar and electric guitar. Tablatures and chords are parodies/interpretations of the original songs. You may use it for private study, scholarship, research or language learning purposes only