» » »

Bad Company, Simple Man Tabs (ver.1)

Artists:  A B C D E F G H I J K L M N O P Q R S T U V W X Y Z # 

Simple Man Tabs (ver.1)

Bad Company Tabs
Rating:
0/5 (0 votes)
Simple Man lessons Tabs too difficult? Try these video lessons and learn fast
                not a very complicated tab but I couldn`t find it anywhere on the net .
Tuning:standard
                                (INTRO)                              D
e|---------------------------------------------------------------------------------------|
B|-------5-6-5-6----------0-6-5-6--------------6-5-6----------------3--------------------|
G|--------------------------------------------3----------------------2-------------------|
D|----0----------------0------------------0--------------------------0-------------------|
A|---------------------------------------------------------------------------------------|
E|---------------------------------------------------------------------------------------|
                                                          D
e|-------5-6-5-6---------0-6-5-6---------------6-5-6------2--------------|
B|-------------------------------------------3------------3--------------|
G|----0----------------0-----------------0----------------2--------------|
D|--------------------------------------------------------0-----3-0------|
A|--------------------------------------------------------0---------3-1--|
E|-----------------------------------------------------------------------|

e|--------------------------------------------------------------------------------|
B|-----3----------3---------------------------------3-------3--3-------3----------|
G|-----2----0--2-----(x4)----------------------------2---0-2----2---0-2-----------|
D|-----0---------------------------------5----3-----0----------0------------------|
A|-----0---------------------------------5----1-----0----------0------------------|
E|---------------------------------------3----1-----------------------------------|
'I am just a simple man ..         oh   no    it aint`t    easy

e|------------------------------------------------------------------------------------|
B|----3---------------------------------------------------3---------------------------|
G|----2------------------------------------------5--------2------(x2)-----------------|
D|----0-----------------------5---------3--------5--------0---------------------------|
A|----0-----------------------5---------3--------3--------0---------------------------|
E|----------------------------3---------1---------------------------------------------|
Freedom is the only thing .....


| /  slide up
| \  slide down
| h  hammer-on
| p  pull-off
| ~  vibrato
| +  harmonic
| x  Mute note
            

comments powered by Disqus
↑ Back to top | Bad Company Tabs for Simple Man. Lyrics for acoustic guitar and electric guitar. Tablatures and chords are parodies/interpretations of the original songs. You may use it for private study, scholarship, research or language learning purposes only