» » »

Shooting Star Bass tabs (ver.1)

Artists:  A B C D E F G H I J K L M N O P Q R S T U V W X Y Z # 

Shooting Star Bass tabs (ver.1)

Bad Company
Rating:
0/5 (0 votes)

Hard to play? Try these video lessons and learn fast.
                
Tune down ½ step
(Eb,Ab,Db,Gb)
Guitar intro

Verse 1 x4
Gb|-----------------------|
Db|-----------------------|
Ab|-----------------------|
Eb|-5--5-r--------5-5--5--|

Pre-chorus
Gb|------------------------------|
Db|------------------------------|
Ab|-5--7-----------5--7----------|
Eb|----0-0---0-0-r----0-0---0-r--|


Verse 2 x4
Gb|-----------------------|
Db|-----------------------|
Ab|-----------------------|
Eb|-5--5-r--------5-5--5--|

Pre-chorus
Gb|------------------------------|
Db|------------------------------|
Ab|-5--7-----------5--7----------|
Eb|----0-0---0-0-r----0-0---0-r--|
    

Chorus
Gb|--------------------------------------------------|-------------------------|
Db|--------------------------------------------------|-------------------------|
Ab|-5-5--5-5--5--------------------------5--7--------|-5-5--5-5--5-------------|
Eb|-------------5-5--5-5--5-/0-0--0-0-00----0-0--0-0-|-------------5-5--5-5--5-|
  
Gb|-------------5h7-----------------------------------------|
Db|-------5h7-7---------------------------------------------|
Ab|------------------5-r-------5--7-----------5--7----------|
Eb|-3-r---------------------------0-0---0-0-r----0-0---0-r--|
                                        
Verse 3 x4
Gb|-----------------------|
Db|-----------------------|
Ab|-----------------------|
Eb|-5--5-r--------5-5--5--|

Pre-chorus
Gb|------------------------------|
Db|------------------------------|
Ab|-5--7-----------5--7----------|
Eb|----0-0---0-0-r----0-0---0-r--|
    


Chorus
Gb|--------------------------------------------------|-------------------------|
Db|--------------------------------------------------|-------------------------|
Ab|-5-5--5-5--5--------------------------5--7--------|-5-5--5-5--5-------------|
Eb|-------------5-5--5-5--5-/0-0--0-0-00----0-0--0-0-|-------------5-5--5-5--5-|
  |
Gb|---------------------------------------------------------|
Db|---------------------------------------------------------|
Ab|------------------5-r-------5--7-----------5--7----------|
Eb|-3-r---------------------------0-0---0-0-r----0-0---0-r--|

Solo                                     X3|
Gb|----------------------------------------|--------------|
Db|----------------------------------------|--------------|
Ab|--------------2--2-2-2---2--2-2-2-(2)p0-|---------7-r--|
Eb|--2-r---0-r-----------------------------|--2-r---------|

Chorus
Gb|--------------------------------------------------|-------------------------|
Db|--------------------------------------------------|-------------------------|
Ab|-5-5--5-5--5--------------------------5--7--------|-5-5--5-5--5-------------|
Eb|-------------5-5--5-5--5-/0-0--0-0-00----0-0--0-0-|-------------5-5--5-5--5-|

Gb|-------------5h7-----------------------------------------|
Db|-------5h7-7---------------------------------------------|
Ab|------------------5-r-------5--7-----------5--7----------|
Eb|-3-r---------------------------0-0---0-0-r----0-0---0-r--|


Verse 4 x4
Gb|-----------------------|
Db|-----------------------|
Ab|-----------------------|
Eb|-5--5-r--------5-5--5--|

Pre-chorus
Gb|------------------------------|
Db|------------------------------|
Ab|-5--7-----------5--7----------|
Eb|----0-0---0-0-r----0-0---0-r--|

Chorus
Gb|--------------------------------------------------|
Db|--------------------------------------------------|
Ab|-5-5--5-5--5--------------------------5--7--------|
Eb|-------------5-5--5-5--5-/0-0--0-0-00----0-0--0-0-|
  |
Gb|---------------------------------------------------|
Db|---------------------------------------------------|
Ab|-5-5--5-5--5----------------------5--7-------------|
Eb|-------------5-5--5-5--5-/0-0-0-0----0-0-0-0-0-0-0-|
            
Hard to play? Try these video lessons and learn fast. | Correct




comments powered by Disqus
↑ Back to top | Tablatures and chords are parodies/interpretations of the original songs. You may use it for private study, scholarship, research or language learning purposes only