>
 >
Run With The Pack

Run With The Pack Guitar Tabs

Bad Company - Run With The Pack chords, tabs, tablatures, lyrics

Guitar lessons | Add/correct | Request | Top 50 tabs Artists:  A B C D E F G H I J K L M N O P Q R S T U V W X Y Z 0-9

Run With The Pack Guitar Tabs – Bad Company

CD, Sheet music, Poster

Do you like Run With The Pack? Share with your friends now
Tabs
Gtr I (E A D G B E)

  Moderate Rock Q=120  Piano arr for guitar Q=R
 4/4
  Gtr I
   E  E  E  E  E  E  E  E    E  E  E  E  E  E
|-------------------------|-------------------|
|-13----13----13----13----|-13----13----13-12-|
|-14----14----14----14----|-14----14----14-12-|
|-12-12----12----12----12-|----12----12-12-12-|
|-------------------------|-------------------|
|-------------------------|-------------------|


 un With The Pack  Q=H
   E  E  E  E  E  E  E  E    E  E  E  E  E  E
|-------------------------|----------------------|
|-13----13----13----13----|-13----13----13-12----|
|-14----14----14----14----|-14----14----14-12----|
|-12-12----12----12----12-|----12----12-12-12----|
|-------------------------|----------------------|
|-------------------------|----------------------|


                                               V
   E  E  E  E  E  E  E  E    E  E  E  E  E  E
|-------------------------|--------------------|
|-13----13----13----13----|-13----13----13-12--|
|-14----14----14----14----|-14----14----14-12--|
|-12-12----12----12----12-|----12----12-12-12--|
|-------------------------|--------------------|
|-------------------------|--------------------|


 erse 1&2 Q=H
       PM    PM-----|   PM      PM
  E  E E E E E E    E E E E E E E
|----------------|-----------------|
|----------------|-----------------|
|----0---0-2-----|----2---0-2-2----|
|----0---0-2-----|----2---0-2-2----|
|-0----0-----0-0-|--0---0-------0--|
|----------------|-----------------|


  PM  PM                                       PM    PM----|   PM
  E E E E E E E    E E E E E  E E  E E    E  E E E E E E   E E E E E
|----------------|----------------------|----------------|-----------|
|----------------|----------------------|----------------|-----------|
|---2---0-2------|----------------------|----2---0-2-----|---2---0-2-|
|---2---0-2------|-------5---------7-7\-|----2---0-2-----|---2---0-2-|
|-0---0-----2-3--|-3-5s7---5--7s9-------|-0----0-----0-0-|-0---0-----|
|----------------|----------------------|----------------|-----------|


                                 Pre-Chorus Q=H
  PM  PM
  E E E E E E E   E E E E  E E E    E    E    E E E E  E E E
|---------------|----------------||--------|------0-0-----------|
|---------------|----------------||--------|-----------3-3------|
|---2---0-2-----|----------------||--------|----2----------2----|
|---2---0-2-----|-----5--------7-||------0-|--0-----------------|
|-0---0-----2-3-|-5s7---5--7s9---||-2------|--------------------|
|---------------|----------------||--------|--------------------|


                                              Chorus 1/2 Time Feel Q=H
  E   E E E E E   E E   E E E E E    E    E   E    E  E E E E
|---|-----0-----|-----|-----0-----|---------|---------0--------|
|---|-------3---|-----|-------3---|---------|-----------3------|
|---|---2-----2-|-----|---2-----2-|---------|-2-----------0----|
|---|-0---------|-----|-0---------|---------|-2----0-----------|
|-2-|-----------|-0h2-|-----------|--2----0-|-0-------------3--|
|---|-----------|-----|-----------|---------|------------------|


  E E E E   E E E E E E E E E E   E E E E E E E E  E E
|---------|-----0---------------|-----0----------------|----|
|---------|-------3-------------|-------3--------------|----|
|-5-5-5-5-|-2-------0---5-5-5-5-|-2-------0---5-5--5-5-|----|
|-5-5-5-5-|-2-0---------5-5-5-5-|-2-0---------5-5--5-5-|----|
|-3-3-3-3-|-0---------3-3-3-3-3-|-0---------3-3-3--3-3-|----|
|---------|---------------------|----------------------|----|


                       Guitar Solo Q=H
                                                                    ~
  E E E E E E E E  E E   E      E E E E  E       E   E E E E E E    E E   E E
|-----0----------------|----------8-5-5--8b8.5-------5----------------------5--|
|-------3--------------|-8b8.5--5--------------------5-5h8p5--------------5----|
|-2-------0---5-5--5-5-|-------------------------7b9---------8p5b6----7b9------|
|-2-0---------5-5--5-5-|--------------------------------------------7----------|
|-0---------3-3-3--3-3-|-------------------------------------------------------|
|----------------------|-------------------------------------------------------|


  ~~~~                                           ~                                     ~~
  E      E E   E      E E  E  E     E     E E  E E  E E E E E  E E  E      E      E E  E
|-------------10b12r=10-8-10-10b12--8b9--------------------------8-10b12--10b12r=10-8-----|
|-8b10---8s7-----------------------------10-8-10------8-8-8-8h10----------------------10--|
|------------------------------------------------9--9-9-----------------------------------|
|-----------------------------------------------------------------------------------------|
|-----------------------------------------------------------------------------------------|
|-----------------------------------------------------------------------------------------|


  Interlude Q=H
                           ~~~~~
   E       E   E      E E  E        Q
|-10b12r==10---------------------------*|----|
|-10b12r==10--10b12r=10p7-10-----------*|----|
|--------------9b11r==9p7--9b11--------*|----|
|--------------------------------------*|----|
|--------------------------------------*|----|
|--------------------------------------*|----|


|-|
|-|
|-|
|-|
|-|
|-|


|-|
|-|
|-|
|-|
|-|
|-|


Duration Legend
---------------
W - whole; H - half; Q - quarter; E - 8th; S - 16th; T - 32nd; X - 64th; a - acciaccatura
+ - note tied to previous; . - note dotted; .. - note double dotted
Uncapitalized letters represent notes that are staccato (1/2 duration)
Irregular groupings are notated above the duration line
Duration letters will always appear directly above the note/fret number it represents the
duration for.  Duration letters with no fret number below them represent rests.  Multi-
bar rests are notated in the form Wxn, where n is the number of bars to rest for.  Low
melody durations appear below the staff

Tablature Legend
----------------
 h   - hammer-on
 p   - pull-off
 b   - bend
 pb  - pre-bend
 r   - bend release (if no number after the r, then release immediately)
 /\  - slide into or out of (from/to "nowhere")
 s   - legato slide
 S   - shift slide
  - natural harmonic
[n]  - artificial harmonic
n(n) - tapped harmonic
 ~   - vibrato
 tr  - trill
 T   - tap
 TP  - trem. picking
 PM  - palm muting
\n/  - tremolo bar dip; n = amount to dip
 \n  - tremolo bar down
 n/  - tremolo bar up
/n\  - tremolo bar inverted dip
 =   - hold bend; also acts as connecting device for hammers/pulls
   - volume swell (louder/softer)
 x   - on rhythm slash represents muted slash
 o   - on rhythm slash represents single note slash

Misc Legend
-----------
 |  - bar
||  - double bar
||o - repeat start
o|| - repeat end
*|  - double bar (ending)
 :  - bar (freetime)
 $  - Segno
 &  - Coda
Tempo markers -  = BPM(8/16=s8/s16), where s8 = swing 8ths, s16 = swing 16ths





Comments


Popular Bad Company tabs & chords
Bad Company Bass Tabs
Bad Company Chords
Bad Company 4 Chords
Movin' On Chords
Silver, Blue, And Gold Chords
Cant Get Enough Complete Tabs
Feel Like Makin' Love 2 Tabs
Feel Like Making Love Tabs
Love Me Somebody 1 Tabs
Simple Man Tabs


Song lyrics



↑ Back to top | Tablatures and chords are parodies/interpretations of the original songs. You may use it for private study, scholarship, research or language learning purposes only
© 2014 AZChords.com Contact us | Privacy policy | DMCA | Add/correct tabs | Request tabs | Top 50 tabs