» » »

Bad Brains, Sailin On Bass tabs (ver.1)

Artists:  A B C D E F G H I J K L M N O P Q R S T U V W X Y Z # 

Sailin On Bass tabs (ver.1)

Bad Brains Tabs
 Rating:
4/5 (4 votes)
Sailin On lessons Tabs too difficult? Try these video lessons and learn fast
                ------------------------------------------------------------------------------
Verse
G-------------------------------|
D-------------------------------|
A-7-7-7-7-7-7-7-7---------------|
E-----------------8-9--9-8-9--8-| 4X

Chorus
G-----------------------------|
D-----------------------------|
A---------------4-5--5-4-7--7-|
E-2-2--0-2-2--2---------------| 3X

G-----------------------------|
D-----------------------------|
A---------------4-5--5-5-7--7-|
E-2-2--0-2-2--2---------------|

Verse
Chorus
Bridge
G-------------------------------------------------|
D-------------------------------------------------|
A-10-10-10-10-10-10-10-10-11-11-11-11-11-11-11-11-|
E-------------------------------------------------| 2X

Verse
Chorus
Verse
Chorus
            
Submit corrections

comments powered by Disqus
↑ Back to top | Bad Brains Bass for Sailin On. Lyrics for acoustic guitar and electric guitar. Tablatures and chords are parodies/interpretations of the original songs. You may use it for private study, scholarship, research or language learning purposes only