» » »

Bad Brains, Sacred Love Tabs (ver.1)

Artists:  A B C D E F G H I J K L M N O P Q R S T U V W X Y Z # 

Sacred Love Tabs (ver.1)

Bad Brains Tabs
Rating:
0/5 (0 votes)
Sacred Love lessons Tabs too difficult? Try these video lessons and learn fast
                Band - Bad Brains
Song - Sacred Love

Slow Song For BB Standards But Its Still Awesome.
Amazing Solo As Well!

b = Bend
/ = Slide
. = Palm Mute
p = Pull Off
V = Vibrato (Just Use The Whammy On This Song, Im Sure Thats What He Does)

Intro/Chorus
|----------------|----------------|----------|
|----------------|----------------|----------|
|-----6---7------|-----6---7------|----------|
|-4---6---7---6--|-4---6---7---6--|-777-666--|
|-4---4---5---6--|-4---4---5---6--|-777-666--|
|-2-----------4--|-2-----------4--|-555-444--|

Verse
|------------------|----------------|----------|
|------------------|----------------|----------|
|----------44--66--|----------------|----------|
|----------44--66--|-----------777--|-777-666--|
|-444------22--44--|-444---4---555--|-777-666--|
|-222--------------|-222---2--------|-555-444--|
  ...                ...   .   ...

Verse Leads
(I Have Put Times For When They Are Played)
0.40  1.45  0.48  1.54
|----------|----------5----|
|----------|---------5--5--|
|-7/9-7-6v-|-2/4-444-------|
|----------|---------------|
|----------|---------------|
|----------|---------------|

Bridge
|------------------------------------------------------|
|----------6-6---------6-6------7-7-------------9/--5--|
|-6--7---6-6-6--7---6--6-6---7--7-7---6---7------------|
|-6--7---6-6-6--7---6--6-6---7--7-7---6---7------------|
|-4--5---4-4-4--5---4--4-4---5--5-5---4---5------------|
|------------------------------------------------------|

Solo
(Listen For The Whammy Techniques)
|------------|----------5----|-----------|---------5-----/12---|
|-5-3-2------|-5-3-2------5--|-5-3-2-----|-5-3-2------5--------|
|-------2----|-------2-------|-------2---|-------2-------------|
|---------4v-|---------------|---------4v|---------------------|
|------------|---------------|-----------|---------------------|
|------------|---------------|-----------|---------------------|

Outro
(This Works But Im Sure Its Not Right)
|-----------|
|-----------|
|-6---7-----|
|-6---7-----|
|-4---5-----|
|-----------|

Structure

Intro/Chorus
Verse
Bridge

Chorus
Verse
Bridge

Solo

Chorus
Outro

There Ya Go!!
Please Rate and Comment!
            

comments powered by Disqus
↑ Back to top | Bad Brains Tabs for Sacred Love. Lyrics for acoustic guitar and electric guitar. Tablatures and chords are parodies/interpretations of the original songs. You may use it for private study, scholarship, research or language learning purposes only