» » »

Bad Brains, Regulator Tabs (ver.1)

Artists:  A B C D E F G H I J K L M N O P Q R S T U V W X Y Z # 

Regulator Tabs (ver.1)

Bad Brains Tabs
Rating:
0/5 (0 votes)
Regulator lessons Tabs too difficult? Try these video lessons and learn fast
                Band - Bad Brains
Song - The Regulator
Album - Bad Brains


Tuning: Standard (E A D G B E)

Awesome Track From The Brains First Album!

.=Palm Mute
/=Slide

Intro
|--------------------------------|
|--------------------------------|
|--------------------------------|
|--------------9-7---------------|
|-10/--7-10-7------10-7---7-10-7-|
|--------------------------------|

Verse
|------------------------------------------|
|------------------------------------------|
|-----------------99-----------------------|
|----------999999-77-888888----------------|
|-77777777-777777----666666-1010-99999999--|
|-55555555------------------8-8--77777777--|
  ........ ...... .. ...... . .  ........
|-------------------------------------------|
|-------------------------------------------|
|------------------99-----------------------|
|-----------999999-77-888888----------------| x3
|-7-7777777-777777----666666-1010-99999999--|
|-5-5555555------------------8-8--77777777--|
    ....... ...... .. ...... . .  ........

Chorus
|-----------------|
|-----------------|
|-----------------|
|-----5-4--3/4----|
|-4-5-3-2--1/2----|
|-2-3-------------|

|-----------------------------|
|-----------------------------|
|-----------------------------|
|----------------55-444-3/444-|
|-444-4-4-55555--33-222-1/222-|
|-222-2-2-33333---------------|
  ...     .....
|-----------------|
|-----------------|
|-----------------|
|-----5-4--3/4----|
|-4-5-3-2--1/2----|
|-2-3-------------|

|------------------------------------|
|------------------------------------|
|------------------------------------|
|--------------55-4--3/4-3/4-3/4-3/4-|
|-44444-55555--33-2--1/2-1/2-1/2-1/2-|
|-22222-33333------------------------|
  ..... .....

Outro
|---------------------|-------------------------------------|
|---------------------|-------------------------------------|
|---------------------|-------------------------------------|
|-777777775-777777775-|-------------------------------------|
|-555555553-555555553-|-0-333-0--0-333-0--0-333-0--0-333-0--|
|---------------------|-------------------------------------|

Structure
Intro
Verse
Chorus
Outro
            

comments powered by Disqus
↑ Back to top | Bad Brains Tabs for Regulator. Lyrics for acoustic guitar and electric guitar. Tablatures and chords are parodies/interpretations of the original songs. You may use it for private study, scholarship, research or language learning purposes only