» » »

How Low Can A Punk Get Bass tabs (ver.1)

Artists:  A B C D E F G H I J K L M N O P Q R S T U V W X Y Z # 

How Low Can A Punk Get Bass tabs (ver.1)

Bad Brains
Rating:
0/5 (0 votes)

Hard to play? Try these video lessons and learn fast.
                This is my first tab and it sounds right to me. This is a bad ass song. Why wasn't it already tabbed?!

Intro(1x)
G----------|
D------1---|
A--1-3-----|
E----------|

Main Riff(6x)
G-------------------------------| 
D-------------------------------|
A--44-------33-22-------11-0>---|
E-----44-33-------22-11---------|

After 6th time slide down on the open A. (Listen to song)

Chorus(8x)
G--------------|
D-------1111---|
A--11-3--------|
E--------------|

Main Riff(4x)
Slide
Chorus(8x)
Main Riff(4x)
Slide
Chorus(7x)

Last Chorus
G------------|
D-------1~---|
A--11-3------|
E------------|

End(Not Sure About This)
G---------------------|
D---------------------|
A--4444-----------3---|
E-------4444-3333-----|

Let me know how it is.
            
Hard to play? Try these video lessons and learn fast. | Correct




comments powered by Disqus
↑ Back to top | Tablatures and chords are parodies/interpretations of the original songs. You may use it for private study, scholarship, research or language learning purposes only