» » »

Bad Brains, Fearless Vampire Killers Tabs (ver.2)

Artists:  A B C D E F G H I J K L M N O P Q R S T U V W X Y Z # 

Fearless Vampire Killers Tabs (ver.2)

Bad Brains Tabs
Rating:
4/5 (2 votes)
Fearless Vampire Killers lessons Tabs too difficult? Try these video lessons and learn fast
                -------------------------------------------------------------------------------
                             FVK - Bad Brains
-------------------------------------------------------------------------------

Tuning: normal tuning

Intro:

e|---------------------------------------------------------------------------|
B|-------------------------------2-------------------------------------------|
G|---------------------------------------------------------------------------|
D|---2-4-5---5-4-0---2-4-5---5-4---------------------------------------------|
A|-2-------2-------2-------2-------------------------------------------------|
E|---------------------------------------------------------------------------|

play that twice

intro part 2:

e|---------------------------------------------------------------------------|
B|---------------------------------------(2)(3)------------------------------|
G|-4------7/6-4-44----4------7/6-4-44-(4)------------------------------------|
D|-4---5--7/6-4-44----4---5--7/6-4-44-----------5----------------------------|
A|-2---5--5/4-2-22----2---5--5/4-2-22-----------5----------------------------|
E|-----3------------------3---------------------3----------------------------|

verse:

e|---------------------------------------------------------------------------|
B|---------------------------------------------------------------------------|
G|-7(x8)-------10-10-9-------------------------------------------------------|
D|-7(x8)-5(x4)-10-10-9-------------------------------------------------------|
A|-5(x8)-5(x4)--8--8-7-------------------------------------------------------|
E|-------3(x4)--------------------------------------------------------------|

e|---------------------------------------------------------------------------|
B|---------------------------------------------------------------------------|
G|-7---5---7-----------------------------------------------------------------|
D|-7---5---7-----------------------------------------------------------------|
A|-5---3---5-----------------------------------------------------------------|
E|---------------------------------------------------------------------------|

chorus: (i dunno if this counts as a chorus)
e|---------------------------------------------------------------------------|
B|---------------------------------------------------------------------------|
G|---------------------------------------------------------------------------|
D|-2-22-5-7-5-4-444-9-9-9----------------------------------------------------|
A|-2-22-5-7-5-4-444-9-9-9----------------------------------------------------|
E|-0-00-3-5-3-2-222-7-7-7----------------------------------------------------|

thats played 4 times

chorus part 2:

e|---------------------------------------------------------------------------|
B|---------------------------------------------------------------------------|
G|---------------------------------------------------------------------------|
D|-7-7-4-4-4-9----7-7-4-4-4-9-(9-11-9-7-9)-----------------------------------|
A|-7-7-4-4-4-9----7-7-4-4-4-9------------------------------------------------|
E|-5-5-2-2-2-7----5-5-2-2-2-7------------------------------------------------|

Chorus part 3:

e|---------------------------------------------------------------------------|
B|---------------------------------------------------------------------------|
G|---------------------------------------------------------------------------|
D|---------------------------------------------------------------------------|
A|-777-44444-99999999-777-44444-999-9-10-9-7-9-------------------------------|
E|-555-22222-77777777-555-22222-777-7-8--7-5-7-------------------------------|


thats played twice

outro:

e|---------------------------------------------------------------------------|
B|---------------------------------------------------------------------------|
G|---------------------------------------------------------------------------|
D|-7------77-----------44-------------77------4------------------------------|
A|-7------77-----------44-------------77------4------------------------------|
E|-5------55-----------22-------------55------2------------------------------|

theres a lot of crazy solos here that i cant figure out. I dont think anyone could even
play Dr. Knows solos anyway, so dont worry about it.


| /  slide up
| \  slide down
| h  hammer-on
| p  pull-off
| ~  vibrato
| +  harmonic
| x  Mute note
===============================================================================
            

comments powered by Disqus
↑ Back to top | Bad Brains Tabs for Fearless Vampire Killers. Lyrics for acoustic guitar and electric guitar. Tablatures and chords are parodies/interpretations of the original songs. You may use it for private study, scholarship, research or language learning purposes only