» » »

Bad Books, Baby Shoes Tabs (ver.1)

Artists:  A B C D E F G H I J K L M N O P Q R S T U V W X Y Z # 

Baby Shoes Tabs (ver.1)

Bad Books Tabs
 Rating:
4/5 (4 votes)
Baby Shoes lessons Tabs too difficult? Try these video lessons and learn fast
                This tab is for the RHYTHM GUITAR ONLY! If someone else wants to use this as part of 
tab when they figure out the lead part then feel free to do so. Until then, take this as at 
and use it best you can.

Drop D
Key: D

The rhythm on the tab is correct but it doesn't line up perfectly with lyrics


e|-----------------------------------------------------|
B|-----------------------------------------------------|
G|-----------------------------------------------------|
D|-----------------------------------------------------|
A|-----------------------------------------------------|
E|-0--0-2-4--4--0--0-2-4--4--0--0--0-2-4--4--2--2--0---|
Baby shoes,  never used,  thought of you until it happened to us too

e|-----------------------------------------------------|
B|-----------------------------------------------------|
G|-----------------------------------------------------|
D|-----------------------------------------------------|
A|-0--0-2-4--4--0--0-2-4--4--0--0--0-2-4--4--2--2p0-0--|
E|-0--0-2-4--4--0--0-2-4--4--0--0--0-2-4--4--2--2p0-0--|
Jennifer, I have heard, you made it through, you finally moved,
that's good for you

e|-------------------------------------------|
B|-------------------------------------------|
G|-------------------------------------------|
D|--/5---0----/5---0----/5--4---2-4-2-0-0----|
A|--/5---0----/5---0----/5--4---2-4-2-0-0----|
E|--/5---0----/5---0----/5--4---2-4-2-0-0----|
I'm a dog, I'm a bird, I'm a rat, and you're detached from all the words
e|-------------------------------------------|
B|-------------------------------------------|
G|-------------------------------------------|
D|--/5---0----/5---0----/5--4---2-4-2-0-0----|
A|--/5---0----/5---0----/5--4---2-4-2-0-0----|
E|--/5---0----/5---0----/5--4---2-4-2-0-0----|
I'm a dick, you're around, I am bound and terrified of making sounds

Interlude 1:
e|---------------------------------------|
B|---------------------------------------|
G|---------------------------------------|
D|-----4-------4----------4--------------|
A|-0--4--4\0--4--4\0--0--4--4\2-4-2-0-0--|
E|-0--4--4\0--4--4\0--0--4--4\2-4-2-0-0--|

e|-----------------------------------------------------|
B|-----------------------------------------------------|
G|-----------------------------------------------------|
D|-----------------------------------------------------|
A|-0--0-2-4--4--0--0-2-4--4--0--0--0-2-4--4--2--2p0-0--|
E|-0--0-2-4--4--0--0-2-4--4--0--0--0-2-4--4--2--2p0-0--|
Satan's eyes, the surprise, search inside and oh my god she's back alive

e|-------------------------------------------|
B|-------------------------------------------|
G|-------------------------------------------|
D|--/5---0----/5---0----/5--4---2-4-2-0-0----|
A|--/5---0----/5---0----/5--4---2-4-2-0-0----|
E|--/5---0----/5---0----/5--4---2-4-2-0-0----|
She is mean, she is harmed, She once belonged to us now belongs to the dark

e|------------------------|
B|------------------------|
G|------------------------|
D|---/5--4---2-4-2-0-0----|
A|---/5--4---2-4-2-0-0----|
E|---/5--4---2-4-2-0-0----|
She once belonged to us now belongs to the dark

Interlude 2:
Interlude 1:
e|---------------------------|
B|---------------------------|
G|---------------------------|
D|--/5-0---/5-0---/5-4-2-0---|
A|--/5-0---/5-0---/5-4-2-0---|
E|--/5-0---/5-0---/5-4-2-0---|

e|-----------------------------------------------------|
B|-----------------------------------------------------|
G|-----------------------------------------------------|
D|-----------------------------------------------------|
A|-0--0-2-4--4--0--0-2-4--4--0--0--0-2-4--4--2--2p0-0--|
E|-0--0-2-4--4--0--0-2-4--4--0--0--0-2-4--4--2--2p0-0--|
She is gone, false alarm, here we are and now I am growing out my arms

e|-----------------------------------------------------|
B|-----------------------------------------------------|
G|-----------------------------------------------------|
D|-----------------------------------------------------|
A|-0--0-2-4--4--0--0-2-4--4--0--0--0-2-4--4--2--2p0-0--|
E|-0--0-2-4--4--0--0-2-4--4--0--0--0-2-4--4--2--2p0-0--|
I can make, big mistakes. Evil comes, yeah it comes to me in ways

Interlude 3:
e|-----------------------------------------------------------------|
B|-----------------------------------------------------------------|
G|-----------------------------------------------------------------|
D|-----------------------------------------------------------------|
A|-4-4-4-4-0-0-0-0-4-4-4-4-0-0-0-0-4-4-4-4-5-5-5-5-0-0-0-0-0-0-0-0-|
E|-4-4-4-4-0-0-0-0-4-4-4-4-0-0-0-0-4-4-4-4-5-5-5-5-0-0-0-0-0-0-0-0-|

e|-----------------------------------------------------------------|
B|-----------------------------------------------------------------|
G|-----------------------------------------------------------------|
D|-----------------------------------------------------------------|
A|-4-4-4-0-0-0-0-0-4-4-4-0-0-0-0-0-4-4-4-4-2-2-2-2-0-0-0-0-0-0-0-0-|
E|-4-4-4-0-0-0-0-0-4-4-4-0-0-0-0-0-4-4-4-4-2-2-2-2-0-0-0-0-0-0-0-0-|
I'm a saint, sticky paint, three sixes we can call her by her name

e|-----------------------------------------------------------------|
B|-----------------------------------------------------------------|
G|-----------------------------------------------------------------|
D|-----------------------------------------------------------------|
A|-4-4-4-0-0-0-0-0-4-4-4-0-0-0-0-0-4-4-4-4-2-2-2-2-0-0-0-0-0-0-0-0-|
E|-4-4-4-0-0-0-0-0-4-4-4-0-0-0-0-0-4-4-4-4-2-2-2-2-0-0-0-0-0-0-0-0-|
I'm a saint, sticky paint, three sixes and we call her by her pain

e|-----------------------------------------------------------------------|
B|-----------------------------------------------------------------------|
G|-----------------------------------------------------------------------|
D|--/5-5-5-5-0-0-0-0-/5-5-5-5-0-0-0-0-/5-5-5-5-0-0-0-0-/5-5-5-5-0-0-0-0--|
A|--/5-5-5-5-0-0-0-0-/5-5-5-5-0-0-0-0-/5-5-5-5-0-0-0-0-/5-5-5-5-0-0-0-0--|
E|--/5-5-5-5-0-0-0-0-/5-5-5-5-0-0-0-0-/5-5-5-5-0-0-0-0-/5-5-5-5-0-0-0-0--|
I'm so lonely, feed me feed me, I'm so angry, pet me pet me

e|-----------------------------------------------------------------------|
B|-----------------------------------------------------------------------|
G|-----------------------------------------------------------------------|
D|--/5-5-5-5-0-0-0-0-/5-5-5-5-0-0-0-0-/5-5-5-5-0-0-0-0-/5-5-5-5-0-0-0-0--|
A|--/5-5-5-5-0-0-0-0-/5-5-5-5-0-0-0-0-/5-5-5-5-0-0-0-0-/5-5-5-5-0-0-0-0--|
E|--/5-5-5-5-0-0-0-0-/5-5-5-5-0-0-0-0-/5-5-5-5-0-0-0-0-/5-5-5-5-0-0-0-0--|
I'm so lonely, kill me kill me, she's so lonely, kill her through me

Interlude 4:
e|-------------------------------------|
B|-------------------------------------|
G|-------------------------------------|
D|-/5-5-5-5-4-4-4-4-2-2-2-2-0-0-0-0----| x4
A|-/5-5-5-5-4-4-4-4-2-2-2-2-0-0-0-0----|
E|-/5-5-5-5-4-4-4-4-2-2-2-2-0-0-0-0----|

e|---------------------------------------------------------|
B|---------------------------------------------------------|
G|---------------------------------------------------------|
D|---------------------------------------------------------|
A|---------------------------------------------------------|
E|-0--0-2-4--4--0--0-2-4--4--0-0-0-0-2-4-4-4-4-2-2-2-0-0---|
Here I come, down the hall, I've got a pretty f**king end to all in all
e|-------------------------------------------------------------|
B|-------------------------------------------------------------|
G|-------------------------------------------------------------|
D|-------------------------------------------------------------|
A|-------------------------------------------------------------|
E|-0-0-0-2-4-4-4-4-0-0-0-2-4-4-4-4-0-0-0-2-4-4-4-4-2-4-2-0-0---|
Hate the bars, love the bars, at least I'm safe and you can't hurt me anymore

B|----------------------------------------------------------------------|
G|----------------------------------------------------------------------|
D|--/5-5-5-5-0-0-0-0-/5-5-5-5-0-0-0-0-/5-5-5-5-4-4-4-4-2-2-2-2-0-0-0-0--|
A|--/5-5-5-5-0-0-0-0-/5-5-5-5-0-0-0-0-/5-5-5-5-4-4-4-4-2-2-2-2-0-0-0-0--|
E|--/5-5-5-5-0-0-0-0-/5-5-5-5-0-0-0-0-/5-5-5-5-4-4-4-4-2-2-2-2-0-0-0-0--|
She is mean, mean and harmed, she once belonged to us but now to the dark

B|------------------------------------|
G|------------------------------------|
D|--/5-5-5-5-4-4-4-4-2-2-2-2-0-0-0-0--|
A|--/5-5-5-5-4-4-4-4-2-2-2-2-0-0-0-0--|
E|--/5-5-5-5-4-4-4-4-2-2-2-2-0-0-0-0--|
She once belonged to us now belongs to the dark

Interlude 5:
e|-------------------------------------|
B|-------------------------------------|
G|-------------------------------------|
D|-/5-5-5-5-4-4-4-4-2-2-2-2-0-0-0-0----| x2
A|-/5-5-5-5-4-4-4-4-2-2-2-2-0-0-0-0----|
E|-/5-5-5-5-4-4-4-4-2-2-2-2-0-0-0-0----|

e|---------------------------------------------------|
B|---------------------------------------------------|
G|---------------------------------------------------|
D|---------------------------------------------------|
A|---------------------------------------------------|
E|-0--0-2-4--4--0--0-2-4--4--0--0-2-4--4-2-4-2-0-0---|
You and me, plucking feathers, and you and me destroy the best of things

e|---------------------------------------------------|
B|---------------------------------------------------|
G|---------------------------------------------------|
D|---------------------------------------------------|
A|---------------------------------------------------|
E|-0--0-2-4--4--0--0-2-4--4--0--0-2-4--4-2-4-2-0-0---|
Sometimes I, can save the afterlife, and I am scared the apocalypse is three

Interlude 6?:

e|--------------------------------------------------|
B|--------------------------------------------------|
G|--------------------------------------------------|
D|--------------------------------------------------|
A|--------------------------------------------------|
E|-5-5-5-5-4-4-4-4-2-2-2-2-0-0-0-0-0-0-0-0-0-0-0-0--|

B|----------------------------------------------------------------------|
G|----------------------------------------------------------------------|
D|--/5-5-5-5-0-0-0-0-/5-5-5-5-0-0-0-0-/5-5-5-5-4-4-4-4-2-2-2-2-0-0-0-0--|
A|--/5-5-5-5-0-0-0-0-/5-5-5-5-0-0-0-0-/5-5-5-5-4-4-4-4-2-2-2-2-0-0-0-0--|
E|--/5-5-5-5-0-0-0-0-/5-5-5-5-0-0-0-0-/5-5-5-5-4-4-4-4-2-2-2-2-0-0-0-0--|
She is mean, she can kill, she would do it just to have a simple thrill

B|----------------------------------------------------------------------|
G|----------------------------------------------------------------------|
D|--/5-5-5-5-0-0-0-0-/5-5-5-5-0-0-0-0-/5-5-5-5-4-4-4-4-2-2-2-2-0-0-0-0--|
A|--/5-5-5-5-0-0-0-0-/5-5-5-5-0-0-0-0-/5-5-5-5-4-4-4-4-2-2-2-2-0-0-0-0--|
E|--/5-5-5-5-0-0-0-0-/5-5-5-5-0-0-0-0-/5-5-5-5-4-4-4-4-2-2-2-2-0-0-0-0--|
She's a saint, sticky paint, three sixes and they call me by her name

e|-------------------------------|
B|-------------------------------|
G|-------------------------------|
D|-/5-5-5-5-4-4-4-4-2-2-2-2-0----|
A|-/5-5-5-5-4-4-4-4-2-2-2-2-0----|
E|-/5-5-5-5-4-4-4-4-2-2-2-2-0----|
Three sixes and we call her by her name
            
Submit corrections

comments powered by Disqus
↑ Back to top | Bad Books Tabs for Baby Shoes. Lyrics for acoustic guitar and electric guitar. Tablatures and chords are parodies/interpretations of the original songs. You may use it for private study, scholarship, research or language learning purposes only