» » »

Bad Astronaut, Unlucky Stuntman Bass tabs (ver.1)

Artists:  A B C D E F G H I J K L M N O P Q R S T U V W X Y Z # 

Unlucky Stuntman Bass tabs (ver.1)

Bad Astronaut Tabs
 Rating:
4/5 (4 votes)
Unlucky Stuntman lessons Tabs too difficult? Try these video lessons and learn fast
1
                # into-verse # *=play 8X %=pause                  |0:32
G%%%%%%%%%%%%%%%%%%%%%%%%%%%%%%%%%%%%%%%%%%%%%%%%%------------------|
D%%%%%%%%%%%%%%%%%%%%%%%%%%%%%%%%%%%%%%%%%%%%%%%%%-----------*------|
A%%%%%%%%%%%%%%%%%%%%%%%%%%%%%%%%%%%%%%%%%%%%%%%%%---*-----/7-------|
E%%%%%%%%%%%%%%%%%%%%%%%%%%%%%%%%%%%%%%%%%%%%%%%%%2/7---------------|
# verse # !õ=11! *=play 5-7X #=play 3X h=hammer-on
G---------------------------------h---------------6-----------------|
D----*-------*-------*-------#--õ979-*-------*-------*----------9-9-|
A---0-------0-------9-------9-------5-------5-------2------/7777-7-7|
E-------------------------------------------------------------------|
:
# chorus # *=play 7X
G-------------------------------------------------------------------|
D------------------------------------*---------------*-------*------|>Then
A---99-9-7\---------99-9-7\---------2--------*------5-------7-------| play
E----------2-220-000-------2-220-000--------2-----------------------| verse.
:
# bridge # *=play 5-8X #=play 3-4X                                  >
G----*------#---#----*------#---#----*------#---#----*-------*----#->
D---7------6---7----8------9--11---12-----12--11----9-------9----6-->
A------------------------------------------------------------------->
E------------------------------------------------------------------->
bridge
------------*---------------*--------------------------------------|
----*------4--------*------2--------*------------------------------|
---0---------------2---------------0--------*-------*--------------|
-------------------------------------------3-------2-------0-------|
:
# chorus2 # !õ=11! *=play 7X %=pause
G------------\----------------------------%%------------------------|
D----------õ-979--õ-----------------------%%------------------------|     
A---99-9-7----------99-9-7\---------79-9-7%%------------------------|      
E--------------------------2-220-000------%%2-----------------------|
:
# into-verse3 # *=play 8X %=pause
G%%%%%%%%%%%%%%%%%%11--9------------7-----------7-6\----------------|
D%%%%%%%%%%%%%%%%%%------11--7--7-7------------------*-------*------|
A%%%%%%%%%%%%%%%%%%---------------------------------2------/7-------|
E%%%%%%%%%%%%%%%%%%-------------------------------------------------|
:
# verse3 # *=play 5-7X #=play 3X h=hammer-on
G-------------------------------------------------------------------|
D----*-------*-----------------------*-------*----/-----------------|
A---0-------0-----779--7--4--0--0-7-5-------5-----79-*--------------|
E---------------------------------------------------7-------0-------|
:
# bridge2 # *=play 5-7X %=pause                                             >
G--------------------------------------------------------------------------->
D----*-------*-------*-------*-------*-------*------764-64--4--------*------>
A---0-------0-----/79-------9-------2-------2----------7--75-75475402------->
E--------------------------------------------------------------------------->
bridge2
--------------------*----------------------------------\---764------%%-----|
--------------/77772------------------/77775---5--7--7-97-----754---%%8----|
---2--2-2----00------------2--2-2--------------------------------7\5%%-----|
:
# outro #
G---------------------------------------------------------------------------->
D--67-9-7-6-7-6-----------------------------------------------------7-6-7-6-4>
A---------------9-7-9-4-------------5---5-5-5---5----------57-7-7-7---------->
E-----------------------2-4-5-4-5-5---5----5--5---5-7-7-7-7------------------>
Then countless minutes of the answering machine...
            
Submit corrections

comments powered by Disqus
↑ Back to top | Bad Astronaut Bass for Unlucky Stuntman. Lyrics for acoustic guitar and electric guitar. 1 Tablatures and chords are parodies/interpretations of the original songs. You may use it for private study, scholarship, research or language learning purposes only