» » »

Bad Astronaut, The Thirteenth Step Tabs (ver.1)

Artists:  A B C D E F G H I J K L M N O P Q R S T U V W X Y Z # 

The Thirteenth Step Tabs (ver.1)

Bad Astronaut Tabs
 Rating:
4.2/5 (5 votes)
The Thirteenth Step lessons Tabs too difficult? Try these video lessons and learn fast
                -------------------------------------------------------------------------------
-------------------------------------------------------------------------------

Tuning: Standard (EADGBe)


Pretty easy song to play, but
look closely for all the small
notes in between chords

Intro-

    Am                      C
e|--------------------------------------------------|
B|--1-----1-----1-----1-----1-----1-----1-----1-----|
G|--2-----2-----2-----2-----0-----0-----0-----0-----|
D|-----2-----2-----2-----2-----2-----2-----2-----2--|
A|-----0-----0-----0-----0-----3-----3-----3-----3--|
E|--------------------------------------------------|

    Am                      D
e|--------------------------------------------0h2------|
B|--1-----1-----1-----1-----3-----3-----3-----3---3----|
G|--2-----2-----2-----2-----2-----2-----2-----2-----2--|
D|-----2-----2-----2-----2-----0-----0-----0-----------|
A|-----0-----0-----0-----0-----------------------------|
E|-----------------------------------------------------|

    Am                    C
e|----------------------------------------------|
B|--1-----1-----1---------1-----1-----1---------|
G|--2-----2-----2---------0-----0-----0---------|
D|-----2-----2-----2---------2-----2-------0-2--|
A|-----0-----0-----0-0-2-----3-----3-----3------|
E|----------------------------------------------|

    Am                    G           E
e|------------------------------------------------|
B|--1-----1-----1---------0-----0-----0-----0-----|
G|--2-----2-----2---------0-----0-----1-----1-----|
D|-----2-----2-----2-3-2-----------------2-----2--|
A|-----0-----0-----0---------2-----2-----2-----2--|
E|---------------------------3-----3--------------|

Verse-

    Am                     C
e|------------------------------------------------|
B|--1-----1-----1-----1----1-----1-----1-----1----|
G|--2-----2-----2-----2----0-----0-----0-----0----|
D|-----2-----2-----2----------2-----2-----2----0--|
A|-----0-----0-----0----2-----3-----3-----3-------|
E|------------------------------------------------|

    Am                      D
e|-----------------------------------------------------|
B|--1-----1-----1-----1-----3-----3-----3-----3---3----|
G|--2-----2-----2-----2-----2-----2-----2-----2-----2--|
D|-----2-----2-----2-----2-----0-----0-----0-----------|
A|-----0-----0-----0-----0-----------------------------|
E|-----------------------------------------------------|

    Am                     C
e|-----------------------------------------------|
B|--1-----1-----1-----1----1-----1-----1---------|
G|--2-----2-----2-----2----0-----0-----0---------|
D|-----2-----2-----2----------2-----2-----2-0-2--|
A|-----0-----0-----0----2-----3-----3-----3------|
E|-----------------------------------------------|

    Am                      D
e|-------------------------------------------------|
B|--1-----1-----1-----1-----3-----3-----3-----3----|
G|--2-----2-----2-----2-----2-----2-----2-----2----|
D|-----2-----2-----2-----2-----0-----0-----0-------|
A|-----0-----0-----0-----0----------------------0--|
E|-------------------------------------------------|

Chorus (or bridge)-

    Fm                      C
e|--------------------------------------------------|
B|--1-----1-----1-----1-----1-----1-----1-----1-----|
G|--1-----1-----1-----1-----0-----0-----0-----0-----|
D|-----------------------------2-----2-----2-----2--|
A|-----3-----3-----3-----3-----3-----3-----3-----3--|
E|--------------------------------------------------| (x2)

    D
e|--------------------------|
B|--3-----3-----3-----3-----|
G|--2-----2-----2-----2-----|
D|-----0-----0-----0-----0--|
A|--------------------------|
E|--------------------------|

    F                       C
e|--------------------------------------------------|
B|--1-----1-----1-----1-----1-----1-----1-----1-----|
G|--2-----2-----2-----2-----0-----0-----0-----0-----|
D|-----------------------------2-----2-----2-----2--|
A|-----3-----3-----3-----3-----3-----3-----3-----3--|
E|--------------------------------------------------|

    D                       F
e|--------------------------------------------------|
B|--3-----3-----3-----3-----1-----1-----1-----1-----|
G|--2-----2-----2-----2-----2-----2-----2-----2-----|
D|-----0-----0-----0-----0--------------------------|
A|-----------------------------3-----3-----3-----3--|
E|--------------------------------------------------|

    G           E
e|--------------------------|
B|--0-----0-----0-----0-----|
G|--0-----0-----1-----1-----|
D|--------------------------|
A|--------------------------|
E|-----3-----3-----0-----0--|

Then you pretty much just repeat the intro, but there's
no G or E and it ends on D.

| /  slide up
| \  slide down
| h  hammer-on
| p  pull-off
| ~  vibrato
| +  harmonic
| x  Mute note
===============================================================================
            
Submit corrections

comments powered by Disqus
↑ Back to top | Bad Astronaut Tabs for The Thirteenth Step. Lyrics for acoustic guitar and electric guitar. Tablatures and chords are parodies/interpretations of the original songs. You may use it for private study, scholarship, research or language learning purposes only