>
 >
Single

Single Guitar Tabs

Bad Astronaut - Single chords, tabs, tablatures, lyrics

Guitar lessons | Add/correct | Request | Top 50 tabs Artists:  A B C D E F G H I J K L M N O P Q R S T U V W X Y Z 0-9

Single Guitar Tabs – Bad Astronaut

CD, Sheet music, Poster

Do you like Single? Share with your friends now
Tabs
~ = Let Ring
 
Intro Riff
0.00
E|-----------------------------------------------------------
B|-----------------------------------------------------------
G|--4--4-------------4-4-------------------------------------
D|--4--4---2-4-6-2~--4-4---2-4-6-2---4-5-6-------------------
A|--2--2---2-4-6-2~--2-2---2-4-6-2---4-5-6-------------------
E|---------0-2-4-0~--------0-2-4-0---2-3-4-------------------
0.06
E|------------------------------------------------------------
B|------------------------------------------------------------
G|--4-4-------------------------4-4-----------------8-8-8-8---
D|--4-4---2-4-6-2-2-2-2--4--6---4-4---2-4-6-2-2-2-2-8-8-8-8---
A|--2-2---2-4-6-2-2-2-2--4--6---2-2---2-4-6-2-2-2-2-6-6-6-6---
E|--------0-2-4-0-0-0-0--2--4---------0-2-4-0-0-0-0-----------
0.11
E|------------------------------------------------------------
B|------------------------------------------------------------
G|--4-4-------------------------4-4-----------------8-8-8-8---
D|--4-4---2-4-6-2-2-2-2--4--6---4-4---2-4-6-2-2-2-2-8-8-8-8---
A|--2-2---2-4-6-2-2-2-2--4--6---2-2---2-4-6-2-2-2-2-6-6-6-6---
E|--------0-2-4-0-0-0-0--2--4---------0-2-4-0-0-0-0-----------

Verse 1
0.18
E|-------------------------------------------------------------------
B|-------------------------------------------------------------------
G|--4-4-4-4-4-4-4-4-----------------4-4-4-4-4-4-4-4------------------
D|--4-4-4-4-4-4-4-4-4-4-4-4-4-4-4-4-4-4-4-4-4-4-4-4-6-6-6-6-4-4-4-4--
A|--2-2-2-2-2-2-2-2-4-4-4-4-4-4-4-4-2-2-2-2-2-2-2-2-6-6-6-6-4-4-4-4--
E|------------------2-2-2-2-2-2-2-2-----------------4-4-4-4-2-2-2-2--
0.24    
E|------------------------------------------------------------
B|------------------------------------------------------------
G|--4-4-4-4-4-4-4-4---------------------------------8---8-7-6-
D|--4-4-4-4-4-4-4-4-4-4-4-4-4-4-4-4-6-6-6-6-6-6-6-6-8---8-7-6-
A|--2-2-2-2-2-2-2-2-4-4-4-4-4-4-4-4-6-6-6-6-6-6-6-6-6---6-5-4-
E|------------------2-2-2-2-2-2-2-2-4-4-4-4-4-4-4-4-----------

Verse 2
0.30
E|-------------------------------------------------------------------
B|-------------------------------------------------------------------
G|--4-4-4-4-4-4-4-4-----------------4-4-4-4-4-4-4-4------------------
D|--4-4-4-4-4-4-4-4-4-4-4-4-4-4-4-4-4-4-4-4-4-4-4-4-6-6-6-6-4-4-4-4--
A|--2-2-2-2-2-2-2-2-4-4-4-4-4-4-4-4-2-2-2-2-2-2-2-2-6-6-6-6-4-4-4-4--
E|------------------2-2-2-2-2-2-2-2-----------------4-4-4-4-2-2-2-2--
0.37
E|-------------------------------------------------------------------
B|-------------------------------------------------------------------
G|--4-4-4-4-4-4-4-4---------------------------------8-8-8-8-8-8-8-8--
D|--4-4-4-4-4-4-4-4-4-4-4-4-4-4-4-4-6-6-6-6-6-6-6-6-8-8-8-8-8-8-8-8--
A|--2-2-2-2-2-2-2-2-4-4-4-4-4-4-4-4-6-6-6-6-6-6-6-6-6-6-6-6-6-6-6-6--
E|------------------2-2-2-2-2-2-2-2-4-4-4-4-4-4-4-4------------------
0.42
E|--------------------------
B|--------------------------
G|--------------------------
D|-2-2-2-2-2-2-2-2-2-2-2-2--
A|-2-2-2-2-2-2-2-2-2-2-2-2--
E|-0-0-0-0-0-0-0-0-0-0-0-0--
0.45
E|--------------------------------------------------------
B|--------------------------------------------------------
G|--4-4---------------------------------------------------
D|--4-4---2-4-5-6-6-6-6-6-6-6-6-2-2-2-2-2-2-2-2-2-2-2-2-2-
A|--2-2---2-4-5-6-6-6-6-6-6-6-6-2-2-2-2-2-2-2-2-2-2-2-2-2-
E|--------0-2-3-4-4-4-4-4-4-4-4-0-0-0-0-0-0-0-0-0-0-0-0-0-

Chorus
0.54
E|------------------------------------------------------------------
B|------------------------------------------------------------------
G|--4-4-4-4-4-4-4-4-------------------------------------------------
D|--4-4-4-4-4-4-4-4-6-6-6-6-6-6-6-6-4-4-4-4-4-4-4-4-2-2-2-2-2-2-2-2-
A|--2-2-2-2-2-2-2-2-6-6-6-6-6-6-6-6-4-4-4-4-4-4-4-4-2-2-2-2-2-2-2-2-
E|------------------4-4-4-4-4-4-4-4-2-2-2-2-2-2-2-2-0-0-0-0-0-0-0-0-
1.01
E|------------------------------------------------------
B|------------------------------------------------------
G|--4-4-4-4--8--9------------8--6-----------------------
D|--4-4-4-4--8--9---6-6-6-6--8--6---4-4-4-4-4-4-4-4--2~-
A|--2-2-2-2--6--7---6-6-6-6--6--4---4-4-4-4-4-4-4-4--2~-
E|------------------4-4-4-4---------2-2-2-2-2-2-2-2--0~-

Bridge 1 (same as intro)
1.08
E|---------------------------------------------------------------
B|---------------------------------------------------------------
G|----------4-4-------------------------4-4------------9-8-6-4---
D|--4-5-6---4-4---2-4-6-2-2-2-2--4--6---4-4---2-4-6-2--9-8-6-4---
A|--4-5-6---2-2---2-4-6-2-2-2-2--4--6---2-2---2-4-6-2--7-6-4-2---
E|--2-3-4---------0-2-4-0-0-0-0--2--4---------0-2-4-0------------

Verse 3
1.14
E|-------------------------------------------------------------------
B|-------------------------------------------------------------------
G|--4-4-4-4-4-4-4-4-----------------4-4-4-4-4-4-4-4------------------
D|--4-4-4-4-4-4-4-4-4-4-4-4-4-4-4-4-4-4-4-4-4-4-4-4-6-6-6-6-4-4-4-4--
A|--2-2-2-2-2-2-2-2-4-4-4-4-4-4-4-4-2-2-2-2-2-2-2-2-6-6-6-6-4-4-4-4--
E|------------------2-2-2-2-2-2-2-2-----------------4-4-4-4-2-2-2-2--
1.20
E|-------------------------------------------------------------------
B|-------------------------------------------------------------------
G|--4-4-4-4-4-4-4-4---------------------------------8-8-8-8-8-8-8-8--
D|--4-4-4-4-4-4-4-4-4-4-4-4-4-4-4-4-6-6-6-6-6-6-6-6-8-8-8-8-8-8-8-8--
A|--2-2-2-2-2-2-2-2-4-4-4-4-4-4-4-4-6-6-6-6-6-6-6-6-6-6-6-6-6-6-6-6--
E|------------------2-2-2-2-2-2-2-2-4-4-4-4-4-4-4-4------------------
1.26
E|----------------------------------------------------------
B|----------------------------------------------------------
G|--------------------4-4-----------------------------------
D|--2-2-2-2-2-2-2-2---4-4---2-4-5-5-5-5-2-2-2-2-2-2-2-2--2~-
A|--2-2-2-2-2-2-2-2---2-2---2-4-5-5-5-5-2-2-2-2-2-2-2-2--2~-
E|--0-0-0-0-0-0-0-0---------0-2-3-3-3-3-0-0-0-0-0-0-0-0--0~-

Slow Chorus
1.38, 1.45 and 1.52
E|--------------------------------------------------
B|--------------------------------------------------
G|--4--4--4--4--------------------------------------
D|--4--4--4--4--6--6--6--6--4--4--4--4--2--2--2--2-- X 3
A|--2--2--2--2--6--6--6--6--4--4--4--4--2--2--2--2--
E|--------------4--4--4--4--2--2--2--2--0--0--0--0--
1.58
E|---------------------------------------------------------
B|---------------------------------------------------------
G|--4--4--4--4---------------------------------------------
D|--4--4--4--4--6--6--6--6--4--4--4--4--6--6--6--6---6-5-4-
A|--2--2--2--2--6--6--6--6--4--4--4--4--6--6--6--6---6-5-4-
E|--------------4--4--4--4--2--2--2--2--4--4--4--4---4-3-2-

Slow part with piano
2.05          2.06         2.08        2.09
E|------------------------------------------------
B|------------------------------------------------
G|------------------------------------------------
D|-------------------------------------3--x--3/4--
A|-2--x--2--x--4--x--4--x--6--x--6--x--1--x--1/2--
E|-0--x--0--x--2--x--2--x--4--x--4--x-------------

Solo
2.13        
E|---------|-------------------------------------
B|---------|-------------------------------------
G|--8-8-8--|------6/7------8-6-6-----8/9-999886--
D|--8-8-8--|--9-9-6/7-4-44-8-6-6-6-6-8/9-999886-- x 4
A|--6-6-6--|--9-9-6/7-4-44-6\4-4-6-6-6/7-777664--
E|---------|--7-7-----2-22-------4-4-------------

Outro and Chorus
2.36
E|-------------------------------------------------------------------
B|-------------------------------------------------------------------
G|--4-4-4-4-4-4-4-4--------------------------------------------------
D|--4-4-4-4-4-4-4-4-4-4-4-4-4-4-4-4-6-6-6-6-6-6-6-6-2-2-2-2-2-2-2-2-- X 2
A|--2-2-2-2-2-2-2-2-4-4-4-4-4-4-4-4-6-6-6-6-6-6-6-6-2-2-2-2-2-2-2-2--
E|------------------2-2-2-2-2-2-2-2-4-4-4-4-4-4-4-4-0-0-0-0-0-0-0-0--
2.47
E|------------------------------------------------------------------
B|------------------------------------------------------------------
G|--4-44-4-4-44-4-------------------------------6/8/9\8-4----4---4--
D|--4-44-4-4-44-4--4-44-4-4-44-4-6-66-6-6-66-6--6/8/9\8-4----4---4--
A|--2-22-2-2-22-2--4-44-4-4-44-4-6-66-6-6-66-6--4/6/7\6-2----2---2--
E|-----------------2-22-2-2-22-2-4-44-4-4-44-4----------------------
 p.m .............. ............. ........... ..............





Comments


Popular Bad Astronaut tabs & chords
Good Morning Night Bass Tabs
Unlucky Stuntman Bass Tabs
500 Miles Chords
Crestfallen Chords
Minus 1 Chords
Quiet Chords
These Days Chords
Anecdote Tabs
Crestfallen Ukulele
Violet Ukulele


Song lyrics



↑ Back to top | Tablatures and chords are parodies/interpretations of the original songs. You may use it for private study, scholarship, research or language learning purposes only
© 2014 AZChords.com Contact us | Privacy policy | DMCA | Add/correct tabs | Request tabs | Top 50 tabs