>
 >
San Francisco Serenade

San Francisco Serenade Guitar Tabs

Bad Astronaut - San Francisco Serenade chords, tabs, tablatures, lyrics

Guitar lessons | Add/correct | Request | Top 50 tabs Artists:  A B C D E F G H I J K L M N O P Q R S T U V W X Y Z 0-9

San Francisco Serenade Guitar Tabs – Bad Astronaut

CD, Sheet music, Poster

Do you like San Francisco Serenade? Share with your friends now
Tabs
-------------------------------------------------------------------------------
-------------------------------------------------------------------------------

Tuning:Standard EADGBe (BUT: ALL STRINGS TUNED 1/4 STEP UP!
                             VERY IMPORTANT!!)  

This tab is perhaps not 100% perfect, but i think everything i wrote is right

Guitar 1: electric
Guitar 2: acoustic


0:15 - 0:27

Guitar 1
e|----------------------------------------|
B|----------------------------------------|
G|--3--4------3--4------3--4--/6----------|
D|1---------4---------4-------------------|
A|----------------------------------------|
E|----------------------------------------|


0:38 - 0:57

Guitar 2
E  F#  B  G#m     
E  F#  B  C#sus C#     
E  F#  B  G#m     
E  F#


0:58 - 1:11

Guitar 1
e|----------------------------------------|
B|----------------------------------8-----|
G|----4--6--4---4--6--8---9--8--6---6-----|
D|----6--8--6---6--8--9---11-9--8---------|
A|----------------------------------------|
E|----------------------------------------|

Guitar 2
G#m  E  B  F# D#


1:12 - 1:36

Guitar 2
E  F#  B  G#m     
E  F#  B  C#sus C#     
E  F#  B  G#m     
F#


1:37 - 2:19

Guitar 1                                         |
e|----------------------------------------|      |
B|----------------------------------8-----|      |
G|----4--6--4---4--6--8---9--8--6---6-----|      |
D|----6--8--6---6--8--9---11-9--8---------|      |- 3x (first time:  
A|----------------------------------------|      |      guitar 2 electric and 
E|----------------------------------------|      |      with some effects)      
                                                 |
Guitar 2                                         |
G#m  E  B  F# D#                                 | 


2:20 - 2:50

Both Guitars
G#m  E  B  F# D# 
G#m  E  B  F# D#


2:51 - 3:15

Guitar 1 (more distortion, can be played as powerchords)
E  F#  B  G#m     
E  F#  B  C#sus C#     
E  F#  B      F#     


3:16 - 3:44

Guitar 1 (same as above)
G#m  E  F#  G
G#m  E  B  E F# D# 


3:45 - 3:59

Guitar 1
e|----------------------------------------|
B|----------------------------------8-----|
G|----4--6--4---4--6--8---9--8--6---6-----|
D|----6--8--6---6--8--9---11-9--8---------|
A|----------------------------------------|
E|----------------------------------------|


4:00 - 4:12

Guitar 2
G#m  E  B  F# D#


4:13

Guitar 1
e|-------------------------------------------------------|
B|----------------------------------8--------------------|
G|----4--6--4---4--6--8---9--8--6---6-----------------4--|
D|----6--8--6---6--8--9---11-9--8---------------------6--|
A|-------------------------------------------------------|
E|-------------------------------------------------------|

Guitar 2
G#m  E  B  F# D#

G#m

===============================================================================





Comments


Popular Bad Astronaut tabs & chords
Anecdote Bass Tabs
Logan's Run Bass Tabs
You Deserve This Bass Tabs
Needle In The Hay Chords
Violet 1 Chords
Our Greatest Year Tabs
Single Tabs
The Passenger Tabs
Quiet Ukulele
Violet Ukulele


Song lyrics



↑ Back to top | Tablatures and chords are parodies/interpretations of the original songs. You may use it for private study, scholarship, research or language learning purposes only
© 2014 AZChords.com Contact us | Privacy policy | DMCA | Add/correct tabs | Request tabs | Top 50 tabs