» » »

Bad Astronaut, Our Greatest Year Tabs (ver.2)

Artists:  A B C D E F G H I J K L M N O P Q R S T U V W X Y Z # 

Our Greatest Year Tabs (ver.2)

Bad Astronaut Tabs
 Rating:
4/5 (4 votes)
Our Greatest Year lessons Tabs too difficult? Try these video lessons and learn fast
1
                I take no credit for figuring this song out, I only added the lyrics to the very good 

Intro
e -------------------|
B -------------------|
G -------------------|
D -2-2-3-2----0-2-0--|
A -3--------2--------|
E ----------3--------|

Verse 1:

C                            Am
In the ashes of our greatest year

                                 F
I forced the point and gave them grief

         G       C       G          A#    Am     F
As if I find a relief to see the worst in everyone

           E          Am       Asus4
Still it's hard to be cruel to you

e -----------------------|
B -----------------------|
G -----0-----------------|
D -2-3----0-0-2-3--2-0---|
A ---------------------3-|
E -----------------------|

Verse 2:

C                             Am
I wish I could- no that's not it

                          F
See what I mean to say is this

            G                  C        G    A#     Am       F
In this mad world it's hard to see the imperfection in your smile

         E          Am      Asus4
And it's hard to be true to you

Harp Solo:

C  Am  F  G  C  G  A#  Asus2  Em  Am  Asus4


Interlude:
(chorus + tremolo)

F             G             C        Am
Even though I run away from you, I'm sorry

F                 G            C           Am
I wish that I had chosen to be true, I'm sorry

F                G               A (see distortion below)
I miss your disposition and your strength

(2:23)       *Distortion kicks in
e ---------------------------------|
B ---------------------------------|
G ------------------------------5--|
D --7--7----7--7-----7--7----7--5--|
A --7--7----7--7-----7--7----7--3--|
E --5--5--3-5--5--3--5--5--3-5-----|

(2:34)
e ---------------------------------------0---|
B -----------------------------5---1p0-------|
G ---------5---5-\---------5---4-------2-----|
D -3---5---5---7-\-3---5---5---2-------------|
A -3---5---3---7-\-3---5---3-----------------|
E -1---3-------5-\-1---3---------------------|

     F              G
I'll miss your disposition and your

 C          G       A#      A    F
Strength to see the best in everyone

           E          Am       Asus4
Still it's hard to be cruel to you

e ------------------------------|
B --1/3 5~--------------------1-|
G ----------------------------0-|
D -----------2-2-3-2--0-0-2-0-2-|
A -----------3--------2-------3-|
E --------------------3---------|
            
Submit corrections

comments powered by Disqus
↑ Back to top | Bad Astronaut Tabs for Our Greatest Year. Lyrics for acoustic guitar and electric guitar. 1 Tablatures and chords are parodies/interpretations of the original songs. You may use it for private study, scholarship, research or language learning purposes only