>
 >
Logan's Run

Logan's Run Bass Tabs

Bad Astronaut - Logan's Run chords, tabs, tablatures, lyrics

Guitar lessons | Add/correct | Request | Top 50 tabs Artists:  A B C D E F G H I J K L M N O P Q R S T U V W X Y Z 0-9

Logan's Run Bass Tabs – Bad Astronaut

CD, Sheet music, Poster

Do you like Logan's Run? Share with your friends now
Bass Tabs
LOGAN'S RUN by Bad Astronaut. Album : Acrophobe (2001)                   
Well, what can I say? Marko 72 - one of the great bassists. Just look at that
diversity of these lines...
# intro # *=play 8X
G---------------------------------------------------------------------------|
D----*---------------*---------------*----------------13-15-13-1513---------|
A---3---------------3---------------3------------//15--------------151315\\\|
E---------------------------------------------------------------------------|
:
# intro2 # 0:08 !all are single notes!
G----------------------0----------------|
D------5--1--0--10--------1--0--10------|
A---3-------------313-------------313-\\|
E---------------------------------------|
:
# verse # *=play 7X  #=play 3-4X %=pause
G------%---%---%%---------------------------------------------------|
D----#-%-#-%-#-%%--------------------*-------#---#-----------*------|
A---3--%3--%3--%%---*--------*------6------/8-/10----*-----10-----\\|
E------%---%---%%3-4--------4-----------------------6---------------|
:
# verse2 # *=play 7X  #=play 3-4X %=pause
G---%%--%%--%%--%-------------------/-chord-picks--\----------------|
D---%%--%%--%%--%-----------65353-----5--6--8---6-------------------|
A---%%3-%%3-%%33%---*------------65666-66-66-666-666--8--8---8-88-8\|
E---%%--%%--%%--%3-4--------------------------------6--66-666-6--6--|
:
# verse3 # *=play 7X  #=play 3-4X %=pause
G---%%%%%%---------------------------*-------*-------*-------#------|
D---%%%%%%-----------*--------------3-------5-------6-------6----#--|
A---%%%%%%---*------6--------*----------------------------------1---|
E---%%%%%%3-4---------------6---------------------------------------|
:
# verse4 # *=play 7X  #=play 3-4X %=pause
G------%---%%%%%%------------------------------------------------#--|
D----#-%-#-%%%%%%--------------------*-------#---#--------------5---|
A---3--%3--%%%%%%---*--------*------6------/8-/10----*-------#------|
E------%---%%%%%%3-4--------4-----------------------6-------6-------|
# verse5 # *=play 7X  #=play 3-4X %=pause
G---%%--%%--%%%%%--------------------*-------#---#------------------|
D---%%--%%--%%%%%-----------6-5-653-1-------3---5----*-------*------|
A---%%3-%%3-%%%%%---*-------6-----------------------1-------1-------|
E---%%--%%--%%%%%3-4------------------------------------------------|
:
# verse6 # *=play 7X  #=play 3-4X %=pause h=hammer-on
G---%%%%%%---------------------------*-------*-------*-------#--h---7h8-|
D---%%%%%%-----------*--------------3-------5-------6-------6---810-----|
A---%%%%%%---*------6--------*------------------------------------------|
E---%%%%%%3-4---------------6-----------------------------------|FAST---|
:
# solo-bg # *=play 7-8X                                          /  >
G-------------------------------------------------------------3-357->
D----*-------------------------------*----------------------55-5---->
A---3--------*-------*-------*------6--------*-------*-------------->
E-----------3-------4-------4---------------4-------6--------------->
>solo-bg
>-------------------------------------------------------------------|
>----*-------------------------6-----*------------------------------|
>---3--------*-------*-------6---63-6--------*----------------------|
>-----------3-------4-------4------4--------4-------66-666-6-6-6666-|
:
# verse7 # *=play 7X  #=play 3-4X %=pause
G-----4-4-------------------------------------------|
D---55-5-5-----------*---------------*--------------| > Then play verse3. >
A------------*------6--------*------8--------*------|
E---------3-4---------------6---------------6-------|
:
# outro #                                                           >
G------------------------------------------------------------------->
D-------5-------5--------------------------3----5------------------->
A---3------3--3---------------------6---------------1--------1---2-->
E-------------------4------4--4---4--------------------------------->
>outro                                                              >
>----------------------------------------------------------------\-->
>-------5--6----8---6---------6-5-------5--6----5-------5--6-----65->
>---3-------------------------------6------------------------------->
>---------------------------------------------------6--------------->
>outro
>-------------------------------------------------------------------|
>-------5--6----8---6-------------------3--5----6---8---------------|
>---3-------------------------------6-------------------------------|
>-----------------------------8-6-4---------------------------------|
Experience of a lifetime!





Comments


Popular Bad Astronaut tabs & chords
Good Morning Night Bass Tabs
Killers And Liars Bass Tabs
Only Good For A Bass Tabs
Unlucky Stuntman Bass Tabs
Megan Chords
Minus 1 Chords
Quiet Chords
Our Greatest Year Tabs
Minus Ukulele
These Days Ukulele


Song lyrics



↑ Back to top | Tablatures and chords are parodies/interpretations of the original songs. You may use it for private study, scholarship, research or language learning purposes only
© 2014 AZChords.com Contact us | Privacy policy | DMCA | Add/correct tabs | Request tabs | Top 50 tabs