» » »

Bad Astronaut, Killers And Liars Bass tabs (ver.1)

Artists:  A B C D E F G H I J K L M N O P Q R S T U V W X Y Z # 

Killers And Liars Bass tabs (ver.1)

Bad Astronaut Tabs
 Rating:
4/5 (4 votes)
Killers And Liars lessons Tabs too difficult? Try these video lessons and learn fast
1
                KILLERS AND LIARS by Bad Astronaut.
Album : Houston: We Have a Drinking Problem (2002)
One of the great ones on this album.The sh*t really hits the fan in the outro!
# into-verse2 # 0:58 !õ=10!
G---4----->-4----->------->---------------------------------|
D--5------>55----->55----->--------------/-\----------------|
A--------->------->------->-0--44--77--99õ975--55--55--55420|
E--------->------->------->---------------------------------|
:
# verse2 # *=play 8X #=play 3-4X |=single note                      >
G------------------------------------------------------------------->
D------------------------------------------------------------------->
A-----------------------4--22--22--22-/55--00-/77------55--77------->
E---3--33--55--55\\22--2---------------------------33---------555--5>
>verse2                             |14     |12 (not 1 and 2)
>--------------------------------------------#-------------------------------|
>----------------------------*-------*-----12--------*-------#--#-----------#|
>---------------------------4-----/14----------9-9995-------9--7--4-5-------5|
>---3--33--55--55--22--22--2-------------------------------------------------|
:
# chorus2 # *=play 5-7X                                             >
G------------------------------------------------------------------->
D----------------------/-------------------------------------------->
A----*------0-02-24----7-7775-54-42--*------0-02-2445--5-05-4--4-054>
E---3---------------2-2-------------3------------------------------->
>chorus2
>---------------------------|
>--------------4-44---------|
>----*------5-------5-------|
>---3-----------------------|
# outro # 2:14 !õ=10! %=pause *=play 5-7X h=hammer-on               >
G%%%%%%%%%%%%%%%%%%%-----------------------%-------%---------------->
D%%%%%%%%%%%%%%%%%%%-----------------------%-------%5-4------------->
A%%%%%%%%%%%%%%%%%%%-*------77665544-*-----%-*-----%---5-050----6-66>
E%%%%%%%%%%%%%%%%%%%0---------------3------%5------%--------3-33---->
>outro                                                              >
>----------%---------------------------------------%HY%%%%%%%%%%%%%%>
>----*-----%---------------------------------------%%%PER%%%%%%%%%%%>
>---5------%55505050-*-----/77665544-*-------*-----%%%%%%CY%%%%%%%%%>
>----------%--------0---------------3-------5------%%%%%%%%NICAL%%%%>
>outro                                                              >
>------------------------------------------------------------------->
>----------------------------------------------------*-------*------>
>----*------00022244-*------5-44-22--*------0-02-2445-------4------->
>---3---------------2---------------3------------------------------->
>outro                                                              >
>------------------------------------------------------------------->
>------------------------------------------------------------------->
>----*------5--------*------5--------------77--99------44--77--99--\>
>---3----------2-2223----------2-2223--33----------33--------------->
>outro
>------------------------h/-------------|
>----------------/-\----4579--7-5-7-----|
>---4-4-5-5-7-7-9õ975-5-------------5-\\|
>---------------------------------------|
This song rocks big time!!!
            
Submit corrections

comments powered by Disqus
↑ Back to top | Bad Astronaut Bass for Killers And Liars. Lyrics for acoustic guitar and electric guitar. 1 Tablatures and chords are parodies/interpretations of the original songs. You may use it for private study, scholarship, research or language learning purposes only