>
 >
Grey Suits

Grey Suits Bass Tabs

Bad Astronaut - Grey Suits chords, tabs, tablatures, lyrics

Guitar lessons | Add/correct | Request | Top 50 tabs Artists:  A B C D E F G H I J K L M N O P Q R S T U V W X Y Z 0-9

Grey Suits Bass Tabs – Bad Astronaut

CD, Sheet music, Poster

Do you like Grey Suits? Share with your friends now
Bass TabsTabs
# verse # *=play 7-8X %=pause                                       >
G-----%%--%%--%%---------------------------------------------------->
D-----%%--%%--%%-----*-------*-------------------------------------->
A-----%%--%%--%%----3-------3--------*-------*-------*-------3335577>
E---11%%11%%11%%117\----------------3-------3-------5-------5------->
verse                                                              >
---------------------%%--%%--%%------------------------------------>
---------------------%%--%%--%%-----*-------*---------------------->
---88778877888888----%%--%%--%%----3-------3--------*-------*------>
-----------------8\11%%11%%11%%1/\-----------------3-------3------->
verse
--------------------*--------------|
--------567-5-5----3---------------|
-----567-----7-753----------*------|
---58----------------------3-------|
:
# chorus # *=play 7-8X %=pause                                      >
G----------------------------------------------------------------%%%>
D------------------------------------*--------5------------------%%%>
A----*-------*-------*--------/-353-3-------33--335--*-----------%%%>
E---5-------5-------1-------1-15---5----------------3-------33333%%%>
chorus
----------------------------------------------------------%%%%%%%%%|
------------------------------------*---------------------%%%%%%%%%|
----*---------------*------------2-3-------3-33335/77757-\%%%%%%%%%|
---5-------5-55553-1-------1-1111-------------------------%%%%%%%%%|
:
# verse2 # *=play 7-8X %=pause                                      >
G-----%%--%%--%%---------------------------------------------------->
D-----%%--%%--%%-----*-------*-------------------------------------->
A-----%%--%%--%%--2-3-------3--------*-------*-----------------232-->
E--\11%%11%%11%%11------------------3-------3-------5-5-53-5-35---53>
verse                                                              >
---------------------%%--%%--%%------------------------------------>
---------------------%%--%%--%%-----*-------*---------------------->
---------------88\\--%%--%%--%%----3-------3--------*-------*------>
---110011001111----11%%11%%11%%111-----------------3-------3------->
verse
-----------------------------------|
--------------------*--------------|
----*-------3-355778--------*------|
---5-------5---------------3-------|
:
# solo # *=play 7-8X  %=pause                                       >
G---%%%%%%%%%%%%%%%%--------------------------------------------%%%%>
D---%%%%%%%%%%%%%%%%-----------------*--------------------------%%%%>
A---%%%%%%%%%%%%%%%%-*------3-------3-------3-33335--*----------%%%%>
E---%%%%%%%%%%%%%%%%1---------1-3-5-----------------3-------3333%%%%>
solo                                                               >
------------------------------------*---------------*-------------->
----*--------3------*----------3---3-------3-0-3-5-7-------75---57->
---5-------55--5-3-1-------113---3---------------------------757--->
solo
-----------------------------------------------%%%%--%%%%%%%%%%%%%%|
---------------------------------------5---7---%%%%--%%%%%%%%%%%%%%|
---8-887-775-553-3388887777555533338-----------%%%%0-%%%%%%%%%%%%%%|
-----------------------------------------------%%%%--%%%%%%%%%%%%%%|
:
# chorus2 # *=play 7-8X %=pause                                     >
G------------------------------------------------------------------->
D------------------------------------*---------------*-------*------>
A----*---------------*-----------/--3-------333333007-------7------->
E---5-------5-55553-1-------1-11115--------------------------------->
chorus
-------------------------------------%%--%%--%%--------------------|
-------------------------------------%%--%%--%%--------------------|
---8-887-775-553-33888877775555333388%%77%%55%%303-0---------------|
-------------------------------------%%--%%--%%--------------------|





Comments


Popular Bad Astronaut tabs & chords
Anecdote Bass Tabs
Jessica's Suicide Chords
Violet 1 Chords
Anecdote Tabs
Our Greatest Year Tabs
Break Your Frame Ukulele
Killers And Liars Ukulele
Megan Ukulele
Minus Ukulele
Passenger Ukulele


Song lyrics



↑ Back to top | Tablatures and chords are parodies/interpretations of the original songs. You may use it for private study, scholarship, research or language learning purposes only
© 2014 AZChords.com Contact us | Privacy policy | DMCA | Add/correct tabs | Request tabs | Top 50 tabs