>
 >
Good Morning Night

Good Morning Night Bass Tabs

Bad Astronaut - Good Morning Night chords, tabs, tablatures, lyrics

Guitar lessons | Add/correct | Request | Top 50 tabs Artists:  A B C D E F G H I J K L M N O P Q R S T U V W X Y Z 0-9

Good Morning Night Bass Tabs – Bad Astronaut

CD, Sheet music, Poster

Do you like Good Morning Night? Share with your friends now
Bass Tabs
GOOD MORNING NIGHT by Bad Astronaut. Album : Twelve Small Steps, One Giant 
Diappointment (2006) Here we go again! Lazy, but nice opening track.     
# verse # +=play 12-13X                                             >
G------------------------------------------------------------------->
D----+-------------------------------+------------------------------>
A---0----------------+--------------5---------------------------7777>
E-------------------2-------------------------------000-0000-00----->
>verse
>-------------------------------------------------------------------|
>----+-------------------------------+------------------------------|
>---0----------------+--------------5----------------------7-77-777-|
>-------------------2-------------------------------000-000---------|
:
# chorus # *=play 7-8X #=play 3-5X                                  >
G-------------------------------#----------------------------------->
D----#---------------*-------#-7-----*------------------------------>
A---5--------#------0-------0-------5--------*-------*-------*------>
E-----------0-------------------------------0-------2-------5------->
>chorus                                            # end-chorus # *=play 7-8X
>--------------------------------------------------|-------------------------|
>----#---#---#---------------*-------*-------*-----|-*-------*-------*------*|
>---5---4---2----#---*------4-------5-------7------|0-------4-------5-------8|
>---------------0---5------------------------------|-------------------------|
:
# bridge #
G---|---------------|---------------|---------------|---------------|
D-------------------------------------------------------------------|
A---000-0000-00-04------------------555-5545-55-555--------7-77-777-|
E-----------------54222-2222-02-222-----------------000-000---------|
:
# verse2 # +=play 12
G---|---------------|---------------|---------------|---------------|
D------------------------------------+------------------------------|
A---000-0000-00-000-------4---------5--------------------757-77-74--|
E------------------4222-22-2-22-202-----------------00000---------75|
# chorus # *=play 7-8X #=play 3-5X                                  >
G------------------------------------------------------------------->
D----#---------------*-------*-------*------------------------------>
A---5--------#------0-------0-------5--------*-------*-------*------>
E-----------0-------------------------------0-------2-------5------->
>chorus                                                                      
>--------------------------------------------------| > Then play end-chorus
>----#---#---#---------------*-------*-------------|   (!every note 16X + 
>---5---4---2----#---*------4-------5-------7------|   slide down in the end!)
>---------------0---5------------------------------|
:
# bridge2 # +=play 12                                               >
G---|---------------|---------------|---------------|--------------->
D-------------2----------------------+--------------3333330355555535>
A---0-00-0000--0-0204-44-4444442-24-5------------------------------->
E------------------------------------------------------------------->
>bridge2
>-------------------------------------|
>-------------------7--6--4-----------|
>---0------------------------7--5-4-2-|
>-------------------------------------|
:
# verse3 # +=play 11-12                                             >
G---|---------------|---------------|---------------|--------------->
D----+-------------------------------+------------------------------>
A---0-------------------------4-----5-------------------77-7-77-777->
E-------------------222-2222-2--222-----------------000---0--------->
>verse3
>-------------------------------------------------------------------|
>----------/-------------------------+--------------------------764-|
>---000-0007-7554420-+--------------5--------------\-----777-777---7|
>-------------------2-------------------------------000-------------|
:
# end-chorus3 # *=play 6-8X                                          >
G--|------------|2X|---------------|------------|2X|----------------|>
D--|-*-------*-------*-------*-----|-*-------*-------*-------*------|>
A--|0-------4-------5-------7------|0-------4-------5-------7------0|>
E--|-------------------------------|--------------------------------|>
>enc-chorus3
>-------------------------------------------|
>----*-------*-------*-------*-------*------|
>---0-------4-----045-------8-------8-------|
>-------------------------------------------|
Hey now!





Comments


Popular Bad Astronaut tabs & chords
Only Good For A Bass Tabs
Quiet Bass Tabs
Break Your Frame Chords
Clear Cutting Chords
You Deserve This Chords
The Thirteenth Step Tabs
Clear Cutting Ukulele
Megan Ukulele
Not A Dull Moment Ukulele
Violet Ukulele


Song lyrics



↑ Back to top | Tablatures and chords are parodies/interpretations of the original songs. You may use it for private study, scholarship, research or language learning purposes only
© 2014 AZChords.com Contact us | Privacy policy | DMCA | Add/correct tabs | Request tabs | Top 50 tabs