>
 >
Autocare

Autocare Guitar Tabs

Bad Astronaut - Autocare chords, tabs, tablatures, lyrics

Guitar lessons | Add/correct | Request | Top 50 tabs Artists:  A B C D E F G H I J K L M N O P Q R S T U V W X Y Z 0-9

Autocare Guitar Tabs – Bad Astronaut

CD, Sheet music, Poster

Do you like Autocare? Share with your friends now
Tabs
Bad Astronaut, Autocare

This is my first tab but most of this is correct. Lemme know if you have any 
questions or comments!

(standard tuning)

	Intro
E ||----------------------------------------------------------|
B ||----------------------------------------------------------|
G ||-9-9-8-8-6-6-4-4------------------------------------------|
D ||-x-x-x-x-x-x-x-x----7-7-xxxx-7-7-xxxx—-2------------------|
A ||-7-7-6-6-4-4-2-2----7-7-xxxx-7-7-xxxx--2------------------|
E ||--------------------5-5-xxxx-4-4-xxxx--0------------------|


E |---------------------------------------------------------||
B |---------------------------------------------------------||
G |-9-9-9/-----------6-6--6---------------------------------||  
D |-9-9-9/----7-7-7—-6-6--6----6-7-6-7-6-7-6-7-6-7-6-6------|| x2
A |-7-7-7/----7-7-7—-4-4--4----0-0-0-0-0-0-0-0-0-0-0-7------||
E |-----------4-4-5-----------------------------------------||


E |-------------------------------------------------------------------|
B |-------------------------------------------------------------------|
G |----------------6-6-6-6-6-6-6-6------------------------------------|
D |2-2-2-2-2-2-2-2-6-6-6-6-6-6-6-6-7-7-7-7-9-9-9-9-11-11-11-11-9-9-9-9|
A |2-2-2-2-2-2-2-2-4-4-4-4-4-4-4-4-7-7—7-7-9-9-9-9-11-11-11-11-9-9-9-9|
E |0-0-0-0-0-0-0-0-----------------5-5-5-5-7-7-7-7-9—-9--9—-9--7-7-7-7|


E |-------------------------------------------------------------------|
B |-------------------------------------------------------------------|
G |-----------------6-6-6-6-6-6-6-6-----------------------------------|
D |-2-2-2-2-2-2-2-2-6-6-6-6-6-6-6-6--7-7--7-9-9--9-11-11--11-9-9-9-9--|
A |-2-2-2-2-2-2-2-2-4-4-4-4-4-4-4-4--7-7--7-9-9--9-11-11--11-9-9-9-9--|
E |-0-0-0-0-0-0-0-0------------------5-5--5-7-7--7-9--9---9--7-7-7-7--|

		Verse
E ||--------------------------------------------------------------||
B ||--------------------------------------------------------------||
G ||-------------------6-6----------------------------------------||
D ||-2-2---6-6---7-7---6-6---7-7-7-7-7-7-7-7-9-9-9-9-9-9-9-9------|| x3
A ||-2-2---6-6---7-7---4-4---7-7-7-7-7-7-7-7-9-9-9-9-9-9-9-9------||
E ||-0-0---4-4---5-5---------5-5-5-5-5-5-5-5-7-7-7-7-7-7-7-7------||


E |-------------------------------------------------------------------|
B |-------------------------------------------------------------------|
G |-------------------6-6---------------------------------------------|
D |-2-2---6-6---7-7---6-6---6-6-6-6-6-6-6-6-7-7-7-7-7-7-7-7-----------|
A |-2-2---6-6---7-7---4-4---6-6-6-6-6-6-6-6-7-7-7-7-7-7-7-7-----------|
E |-0-0---4-4---5-5---------4-4-4-4-4-4-4-4-5-5-5-5-5-5-5-5-----------|

		Chorus
E |-------------------------------------------------------------------|
B |-------------------------------------------------------------------|
G |-----------------4-4-4-4-4-4-4-4-6-6-6-6-6-6-6-6-2-2-2-2-2-2-2-2---|
D |-2---2-2-2-2-2-2-4-4-4-4-4-4-4-4-6-6-6-6-6-6-6-6-2-2-2-2-2-2-2-2---|
A |-2---2-2-2-2-2-2-2-2-2-2-2-2-2-2-4-4-4-4-4-4-4-4-0-0-0-0-0-0-0-0---|
E |-0---0-0-0-0-0-0---------------------------------------------------|
	 PM . . . . . . . . . . . . . . . . . . . . . . . . . . . . .




E |-------------------------------------------------------------------|
B |-----------------------------------------1----0--------------------|
G |-6-6-6-6-2-2-2-2-4-4-4-4-4-4-4-4---------2----2--------------------|
D |-6-6-6-6-2-2-2-2-4-4-4-4-4-4-4-4---------2----2--------------------|
A |-4-4-4-4-0-0-0-0-2-2-2-2-2-2-2-2---------0----0--------------------|
E |-------------------------------------------------------------------|
   PM . . . . . . . . . . . . . . .

E |-------------------------------------------------------------------|
B |-------------------------------------------------------------------|
G |----------------6-6-6-6-6-6-6-6------------------------------------|
D |2-2-2-2-2-2-2-2-6-6-6-6-6-6-6-6-7-7-7-7-9-9-9-9-11-11-11-11-9-9-9-9|
A |2-2-2-2-2-2-2-2-4-4-4-4-4-4-4-4-7-7—7-7-9-9-9-9-11-11-11-11-9-9-9-9|
E |0-0-0-0-0-0-0-0-----------------5-5-5-5-7-7-7-7-9—-9--9—-9--7-7-7-7|


E |-------------------------------------------------------------------|
B |-------------------------------------------------------------------|
G |-----------------6-6-6-6-6-6-6-6-----------------------------------|
D |-2-2-2-2-2-2-2-2-6-6-6-6-6-6-6-6--7-7--7-9-9--9-11-11--11-9-9-9-9--|
A |-2-2-2-2-2-2-2-2-4-4-4-4-4-4-4-4--7-7--7-9-9--9-11-11--11-9-9-9-9--|
E |-0-0-0-0-0-0-0-0------------------5-5--5-7-7--7-9--9---9--7-7-7-7--|

		Verse
E |-------------------------------------------------------------------|
B |-------------------------------------------------------------------|
G |-------------------6-6---------------------------------------------|
D |-2-2---6-6---7-7---6-6---7-7-7-7-7-7-7-7-9-9-9-9-9-9-9-9-----------|
A |-2-2---6-6---7-7---4-4---7-7-7-7-7-7-7-7-9-9-9-9-9-9-9-9-----------|
E |-0-0---4-4---5-5---------5-5-5-5-5-5-5-5-7-7-7-7-7-7-7-7-----------|

E |-------------------------------------------------------------------|
B |-------------------------------------------------------------------|
G |-------------------6-6---------------------------------------------|
D |-2-2---6-6---7-7---6-6---6-6-6-6-6-6-6-6-7-7-7-7-7-7-7-7-----------|
A |-2-2---6-6---7-7---4-4---6-6-6-6-6-6-6-6-7-7-7-7-7-7-7-7-----------|
E |-0-0---4-4---5-5---------4-4-4-4-4-4-4-4-5-5-5-5-5-5-5-5-----------|

		Chorus
E |-------------------------------------------------------------------|
B |-------------------------------------------------------------------|
G |-----------------4-4-4-4-4-4-4-4-6-6-6-6-6-6-6-6-2-2-2-2-2-2-2-2---|
D |-2---2-2-2-2-2-2-4-4-4-4-4-4-4-4-6-6-6-6-6-6-6-6-2-2-2-2-2-2-2-2---|
A |-2---2-2-2-2-2-2-2-2-2-2-2-2-2-2-4-4-4-4-4-4-4-4-0-0-0-0-0-0-0-0---|
E |-0---0-0-0-0-0-0---------------------------------------------------|
	 PM . . . . . . . . . . . . . . . . . . . . . . . . . . . . .
	
E |--------------------------------------------------------------|
B |------------------------------------1----0--------------------|
G |-6--6--2--2--4--4-xxxx-6/-----------2----2--------------------|
D |-6--6--2--2--4--4-xxxx-6/-----------2----2--------------------|
A |-4--4--0--0--2--2-xxxx-4/-----------0----0--------------------|
E |--------------------------------------------------------------|



E |---------------------------------------------------------||
B |---------------------------------------------------------||
G |-9-9-9/-----------6-6--6---------------------------------||  
D |-9-9-9/----7-7-7—-6-6--6----6-7-6-7-6-7-6-7-6-7-6-6------|| x2
A |-7-7-7/----7-7-7—-4-4--4----0-0-0-0-0-0-0-0-0-0-0-7------||
E |-----------4-4-5-----------------------------------------||

E ||-----------------------------||
B ||-----------------------------||
G ||-----------------------------||
D ||-----------------------------|| x4 (Skip last note 4th time around.)
A ||-/12-14-11-12-9-11-7-9-7-6-7-||
E ||--0--0--0--0--0-0--0-0-0-0-0-||


E |--------------------------------------------------|
B |--------------------------------------------------|
G |--------------------------------------------------|
D |--------------------------------------------------|
A |-\14--14-14-14-14-14-14-14-14-14-14-14-14-14-14---|
E |--0---0--0--0--0--0--0--0--0--0--0--0--0--0--0----|


E |--------------------------------------------------|
B |--------------------------------------------------|
G |--------------------------------------------------|
D |--------------------------------------------------|
A |-12--12-12-12-12-12-12--11--11-11-11--11-12-11----|
E |-0---0--0--0--0--0--0---0---0--0--0---0--0--0-----|


E |----------------------------------------------------------------||
B |----------------------------------------------------------------||
G |----------------------------------------------------------------||x2 
D |-----------------------------------------------------------x-x-x||
A |7--7--7-7--7-14-14--14-14-14--12-12-12-11-9-11-14-14-14-14-x-x-x||
E |0--0--0-0--0-0--0---0--0--0---0--0--0--0--0-0--0--0--0--0—-x-x-x||

E ||-----------------------------||
B ||-----------------------------||
G ||-----------------------------||
D ||-----------------------------|| x2 (Skip last note 2nd time around.)
A ||-/12-14-11-12-9-11-7-9-7-6-7-||
E ||--0--0--0--0--0-0--0-0-0-0-0-||

E |---------------------------------------------------------|
B |---------------------------------------------------------|
G |-9-9-8-8-6-6-4-4-----------------------------------------|
D |-x-x-x-x-x-x-x-x----7-7-xxxx-7-7-xxxx—-------------------|
A |-7-7-6-6-4-4-2-2----7-7-xxxx-7-7-xxxx--------------------|
E |--------------------5-5-xxxx-4-4-xxxx--------------------|

E |-------------------------------------------------------------------|
B |-------------------------------------------------------------------|
G |----------------6-6-6-6-6-6-6-6------------------------------------|
D |2-2-2-2-2-2-2-2-6-6-6-6-6-6-6-6-7-7-7-7-9-9-9-9-11-11-11-11-9-9-9-9|
A |2-2-2-2-2-2-2-2-4-4-4-4-4-4-4-4-7-7—7-7-9-9-9-9-11-11-11-11-9-9-9-9|
E |0-0-0-0-0-0-0-0-----------------5-5-5-5-7-7-7-7-9—-9--9—-9--7-7-7-7|


E |-------------------------------------------------------------------|
B |-------------------------------------------------------------------|
G |-----------------6-6-6-6-6-6-6-6-----------------------------------|
D |-2-2-2-2-2-2-2-2-6-6-6-6-6-6-6-6--7-7--7-9-9--9-11-11--11-9-9-9-9--|
A |-2-2-2-2-2-2-2-2-4-4-4-4-4-4-4-4--7-7--7-9-9--9-11-11--11-9-9-9-9--|
E |-0-0-0-0-0-0-0-0------------------5-5--5-7-7--7-9--9---9--7-7-7-7--|

Verse
E |-------------------------------------------------------------------|
B |-------------------------------------------------------------------|
G |-------------------6-6---------------------------------------------|
D |-2-2---6-6---7-7---6-6---7-7-7-7-7-7-7-7-9-9-9-9-9-9-9-9-----------|
A |-2-2---6-6---7-7---4-4---7-7-7-7-7-7-7-7-9-9-9-9-9-9-9-9-----------|
E |-0-0---4-4---5-5---------5-5-5-5-5-5-5-5-7-7-7-7-7-7-7-7-----------|

E |-------------------------------------------------|
B |-------------------------------------------------|
G |-------------------6-6---------------------------|
D |-2-2---6-6---7-7---6-6---6-6--6-6--7-7--7-7-7----|
A |-2-2---6-6---7-7---4-4---6-6--6-6--7-7--7-7-7----|
E |-0-0---4-4---5-5---------4-4--4-4--5-5--5-5-5----|

Bass only for a while then

E |-------------------------------------------------------------------|
B |-----------------------------------------1----0--------------------|
G |-6-6-6-6-2-2-2-2-4-4-4-4-4-4-4-4---------2----2--------------------|
D |-6-6-6-6-2-2-2-2-4-4-4-4-4-4-4-4---------2----2--------------------|
A |-4-4-4-4-0-0-0-0-2-2-2-2-2-2-2-2---------0----0--------------------|
E |-------------------------------------------------------------------|
   PM . . . . . . . . . . . . . . .


E ||---------------------------------------------------------||
B ||---------------------------------------------------------||
G ||-9-9-9/-----------6-6--6---------------------------------||  
D ||-9-9-9/----7-7-7—-6-6--6----6-7-6-7-6-7-6-7-6-7-6-6------|| x2
A ||-7-7-7/----7-7-7—-4-4--4----0-0-0-0-0-0-0-0-0-0-0-7------||
E ||-----------4-4-5-----------------------------------------||





Comments


Popular Bad Astronaut tabs & chords
Logan's Run Bass Tabs
Only Good For A Bass Tabs
Quiet Bass Tabs
Break Your Frame Chords
Minus 2 Chords
Violet Chords
Jessicas Suicide Ukulele
Passenger Ukulele
Quiet Ukulele
Statler 2000 Ukulele


Song lyrics



↑ Back to top | Tablatures and chords are parodies/interpretations of the original songs. You may use it for private study, scholarship, research or language learning purposes only
© 2014 AZChords.com Contact us | Privacy policy | DMCA | Add/correct tabs | Request tabs | Top 50 tabs