» » »

500 Miles Bass tabs (ver.1)

Artists:  A B C D E F G H I J K L M N O P Q R S T U V W X Y Z # 

500 Miles Bass tabs (ver.1)

Bad Astronaut
Rating:
0/5 (0 votes)

Hard to play? Try these video lessons and learn fast.
                # song # 0:34 *=play 5-8X #=play 3-4X p=pull-off %=pause            >
G------------------------------------------------------------------->
D----*-------*-------*---------------*--------------------------5532>
A---3-------0-------5--------*------5--------#---#------5555--55---->
E---------------------------1---------------0---1---3-33----33------>
song                                                               >
----*-------*-------*-------*-------*------------------------------>
---3------/0-------5------/8-------5--------#---#--3-----------5-7->
-------------------------------------------0---1------------------->
song                                                               >
--------#-----------------------------------#---#------------------>
----#--5----#-------#--32-----------*------2---3---5-55555355332200>
---7-------0---00355-----53-*------5------------------------------->
---------------------------1--------------------------------------->
song                                                               >
------0-0-----------------------------------#---#----5----------/-->
------2-2-----------*---------------*------2---3----------/5533225\>
---3-3---3--p--p-p-5--------*------5---------------3--------------->
-----------5-35-353--------1--------------------------------------->
song                                                               >
--------------%%%%%-------------------------*-------*-------*------>
--------h-----%%%%%-----------------*------2-------3-------5------->
---3-3-357-0-0%%%%%5-5053---*------5------------------------------->
--------------%%%%%------531--------------------------------------->
song
----------------------------%%%%%%%|
----*-----------------------%%%%%%%|
---5--------*------3-3-3-3-3%%%%%%%|
----------\1--------3-3-3-3-%%%%%%%|
            
Hard to play? Try these video lessons and learn fast. | Correct




comments powered by Disqus
↑ Back to top | Tablatures and chords are parodies/interpretations of the original songs. You may use it for private study, scholarship, research or language learning purposes only