» » »

Bad Acid Trip, Strange Humans Tabs (ver.1)

Artists:  A B C D E F G H I J K L M N O P Q R S T U V W X Y Z # 

Strange Humans Tabs (ver.1)

Bad Acid Trip Tabs
Rating:
0/5 (0 votes)
Strange Humans lessons Tabs too difficult? Try these video lessons and learn fast
                -------------------------------------------------------------------------------
-------------------------------------------------------------------------------

Tuning:Dropped D --D A D G B e--

e|---------------------------------------------------------------------------|
B|---------------------------------------------------------------------------|
G|-8-9-8-6-8-8-8/11-11-11-9-8-8----------------------------------------------|
D|-x-x-x-x-x-x-x/-x--x--x-x-x-x---x8------3-4-5--4-5-6--5-6-7--8-7-6---------|
A|-6-7-6-4-6-6-6/-9--9--9-7-6-6-----------3-4-5--4-5-6--5-6-7--8-7-6---x2----|
D|----------------------------------------3-4-5--4-5-6--5-6-7--8-7-6---------|
                                          x x x  x x x  x x x  x x x

e|---------------------------------------------------------------------------|
B|---------------------------------------------------------------------------|
G|---------------------------------------------------------------------------|
D|-3-4-5--4-5-6--5-6-7--8-7-6------------------------------------------------|
A|-3-4-5--4-5-6--5-6-7--8-7-6---x2-------------------------------------------|
D|-3-4-5--4-5-6--5-6-7--8-7-6------------------------------------------------|


e|---------------------------------------------------------------------------|
B|---------------------------------------------------------------------------|
G|-8-9-8-6-8-8-8/11-11-9-8-8----------13-13-14-14-11-11-12-12----------------|
D|-x-x-x-x-x-x-x/-x--x-x-x-x---x6------x--x--x--x--x--x--x--x---x8-----------|
A|-6-7-6-4-6-6-6/-9--9-7-6-6----------11-11-12-12--9--9-10-10----------------|
D|---------------------------------------------------------------------------|


e|---------------------------------------------------------------------------|
B|---------------------------------------------------------------------------|
G|---------------------------------------------------------------------------|
D|---------------------------------------------------------------------------|
A|-1-1-1-2-4--1-1-1-4-5---x4------1-1-1-2-4--1-1-1-4-5---x4------------------|
D|-1-1-1-2-4--1-1-1-4-5-----------1-1-1-2-4--1-1-1-4-5-----------------------|
   x x x x x  x x x x x

e|---------------------------------------------------------------------------|
B|---------------------------------------------------------------------------|
G|---------------------------------------------------------------------------|
D|-3-4-5--4-5-6--5-6-7--8-7-6------------------------------------------------|
A|-3-4-5--4-5-6--5-6-7--8-7-6------x4----------------------------------------|
D|-3-4-5--4-5-6--5-6-7--8-7-6------------------------------------------------|


e|---------------------------------------------------------------------------|
B|---------------------------------------------------------------------------|
G|---------------------------------------------------------------------------|
D|---------------------------------------------------------------------------|
A|--------------------------------------------x4-----------------------------|
D|-33334455--44445566--55556677--88887766------------------------------------|


e|---------------------------------------------------------------------------|
B|---------------------------------------------------------------------------|
G|-8-9-8-6-8-8-8/11-11-11-9-8-8----------------------------------------------|
D|-x-x-x-x-x-x-x/-x--x--x-x-x-x---x8-----------------------------------------|
A|-6-7-6-4-6-6-6/-9--9--9-7-6-6----------------------------------------------|
D|---------------------------------------------------------------------------|



| /  slide up
| \  slide down
| h  hammer-on
| p  pull-off
| ~  vibrato
| +  harmonic
| x  Mute note
===============================================================================
            

comments powered by Disqus
↑ Back to top | Bad Acid Trip Tabs for Strange Humans. Lyrics for acoustic guitar and electric guitar. Tablatures and chords are parodies/interpretations of the original songs. You may use it for private study, scholarship, research or language learning purposes only