>
 >
Jumprope Spraywater 1

Jumprope Spraywater 1 Guitar Tabs

Bad Acid Trip - Jumprope Spraywater 1 chords, tabs, tablatures, lyrics

Guitar lessons | Add/correct | Request | Top 50 tabs Artists:  A B C D E F G H I J K L M N O P Q R S T U V W X Y Z 0-9

Jumprope Spraywater 1 Guitar Tabs – Bad Acid Trip

CD, Sheet music, Poster

Do you like Jumprope Spraywater 1? Share with your friends now
TabsTabs v2
-------------------------------------------------------------------------------
                             Jumprope Sparywater - Bad Acid Trip
-------------------------------------------------------------------------------

Tuning:Dropped D --D A D G B e--

e|---------------------------------------------------------------------------|
B|---------------------------------------------------------------------------|
G|---------------------------------------------------------------------------|
D|-1-1-1-3-3-3-4-4-4-3-3-3--1-1-1-3-3-3-4-4-4-3-3-3--1-1-1-3-3-3-4-4-4-3-3-3-|
A|---------------------------------------------------------------------------|
D|---------------------------------------------------------------------------|
   x x x x x x x x x x x x  x x x x x x x x x x x x  x x x x x x x x x x x x

e|---------------------------------------------------------------------------|
B|---------------------------------------------------------------------------|
G|---------------------------------------------------------------------------|
D|-------2-2-2-1-1-1-2-2-2---------------------------------------------------|
A|-1-1-1---------------------x2----------------------------------------------|
D|---------------------------------------------------------------------------|
   x x x x x x x x x x x x

e|---------------------------------------------------------------------------|
B|---------------------------------------------------------------------------|
G|---------------------------------------------------------------------------|
D|-1-1-1-3-3-3-4-4-4-3-3-3--1-1-1-3-3-3-4-4-4-3-3-3--1-1-1-3-3-3-4-4-4-3-3-3-|
A|---------------------------------------------------------------------------|
D|---------------------------------------------------------------------------|
  

e|---------------------------------------------------------------------------|
B|---------------------------------------------------------------------------|
G|--------------------------------------3-3-3-3-3-3-3-3----------------------|
D|-------2-2-2-1-1-1-2-2-2--------------1-1-1-1-1-1-1-1-2---x4---------------|
A|-1-1-1---------------------x2-------------------------0--------------------|
D|---------------------------------------------------------------------------|


e|---------------------------------------------------------------------------|
B|---------------------------------------------------------------------------|
G|---------------------------------------------------------------------------|
D|-1-1-1-3-3-3-4-4-4-3-3-3--1-1-1-3-3-3-4-4-4-3-3-3--1-1-1-3-3-3-4-4-4-3-3-3-|
A|---------------------------------------------------------------------------|
D|---------------------------------------------------------------------------|
   

e|---------------------------------------------------------------------------|
B|---------------------------------------------------------------------------|
G|--------------------------------------3-3-3-3-3-3-3-3----------------------|
D|-------2-2-2-1-1-1-2-2-2--------------1-1-1-1-1-1-1-1-2---x2---------------|
A|-1-1-1---------------------x2-------------------------0--------------------|
D|---------------------------------------------------------------------------|


e|---------------------------------------------------------------------------|
B|---------------------------------------------------------------------------|
G|-8-8-8-8-9-11-6-6-6-6-8-9--6-6-6-6-11-9-8-8-8-8----------------------------|
D|-x-x-x-x-x-x--x-x-x-x-x-x--x-x-x-x--x-x-x-x-x-x---x1-----------------------|
A|-6-6-6-6-7-9--4-4-4-4-6-7--4-4-4-4--9-7-6-6-6-6----------------------------|
D|---------------------------------------------------------------------------|


e|---------------------------------------------------------------------------|
B|---------------------------------------------------------------------------|
G|11-11-11-11-9-8--6-6-6-6-8-9--6-6-6-6-11-9-8-8-8-8-------------------------|
D|-x--x--x--x-x-x--x-x-x-x-x-x--x-x-x-x--x-x-x-x-x-x---x1--------------------|
A|-9--9--9--9-7-6--4-4-4-4-6-7--4-4-4-4--9-7-6-6-6-6-------------------------|
D|---------------------------------------------------------------------------|


e|---------------------------------------------------------------------------|
B|---------------------------------------------------------------------------|
G|11-11-11-11-9-8--6-6-6-6-9-8--6-6-6-6-9-9-8-8-8-8--------------------------|
D|-x--x--x--x-x-x--x-x-x-x-x-x--x-x-x-x-x-x-x-x-x-x---x1---------------------|
A|-9--9--9--9-7-6--4-4-4-4-7-6--4-4-4-4-7-7-6-6-6-6--------------------------|
D|---------------------------------------------------------------------------|


e|---------------------------------------------------------------------------|
B|---------------------------------------------------------------------------|
G|---------------------------------------------------------------------------|
D|-1-1-1-3-3-3-4-4-4-3-3-3--1-1-1-3-3-3-4-4-4-3-3-3--1-1-1-3-3-3-4-4-4-3-3-3-|
A|---------------------------------------------------------------------------|
D|---------------------------------------------------------------------------|
  

e|---------------------------------------------------------------------------|
B|---------------------------------------------------------------------------|
G|--------------------------------------3-3-3-3-3-3-3-3----------------------|
D|-------2-2-2-1-1-1-2-2-2--------------1-1-1-1-1-1-1-1-2---x4---------------|
A|-1-1-1---------------------x2-------------------------0--------------------|
D|---------------------------------------------------------------------------|


e|---------------------------------------------------------------------------|
B|---------------------------------------------------------------------------|
G|-8-8-8-8-9-11-6-6-6-6-8-9--6-6-6-6-11-9-8-8-8-8----------------------------|
D|-x-x-x-x-x-x--x-x-x-x-x-x--x-x-x-x--x-x-x-x-x-x---x1-----------------------|
A|-6-6-6-6-7-9--4-4-4-4-6-7--4-4-4-4--9-7-6-6-6-6----------------------------|
D|---------------------------------------------------------------------------|


e|---------------------------------------------------------------------------|
B|---------------------------------------------------------------------------|
G|11-11-11-11-9-8--6-6-6-6-8-9--6-6-6-6-11-9-8-8-8-8-------------------------|
D|-x--x--x--x-x-x--x-x-x-x-x-x--x-x-x-x--x-x-x-x-x-x---x1--------------------|
A|-9--9--9--9-7-6--4-4-4-4-6-7--4-4-4-4--9-7-6-6-6-6-------------------------|
D|---------------------------------------------------------------------------|


e|---------------------------------------------------------------------------|
B|---------------------------------------------------------------------------|
G|11-11-11-11-9-8--6-6-6-6-9-8--6-6-6-6-9-9-8-8-8-8--------------------------|
D|-x--x--x--x-x-x--x-x-x-x-x-x--x-x-x-x-x-x-x-x-x-x---x1---------------------|
A|-9--9--9--9-7-6--4-4-4-4-7-6--4-4-4-4-7-7-6-6-6-6--------------------------|
D|---------------------------------------------------------------------------|


e|---------------------------------------------------------------------------|
B|-4-------------------------------------------------------------------------|
G|---3-1-2-3-2-1-2---3-1-2-3-2-1-2--------9-9-9-9-8-8-9--11-11-11-11-10-10-11|
D|-----------------3-----------------x3---x-x-x-x-x-x-x---x--x--x--x--x--x--x|
A|----------------------------------------7-7-7-7-6-6-7---9--9--9--9--8--8--9|
D|---------------------------------------------------------------------------|


e|---------------------------------------------------------------------------|
B|---------------------------------------------------------------------------|
G|-13-13-13-13-12-12-13--9-9-9-9-8-------------------------------------------|
D|--x--x--x--x--x--x--x--x-x-x-x-x---x1--------------------------------------|
A|-11-11-11-11-10-10-11--7-7-7-7-6-------------------------------------------|
D|---------------------------------------------------------------------------|


e|---------------------------------------------------------------------------|
B|-4-------------------------------------------------------------------------|
G|---3-1-2-3-2-1-2---3-1-2-3-2-1-2--------9-9-9-9-8-8-9--11-11-11-11-10-10-11|
D|-----------------3-----------------x3---x-x-x-x-x-x-x---x--x--x--x--x--x--x|
A|----------------------------------------7-7-7-7-6-6-7---9--9--9--9--8--8--9|
D|---------------------------------------------------------------------------|


e|---------------------------------------------------------------------------|
B|------------------------------------------------4--------------------------|
G|-13-13-13-13-12-12-13--9-9-9-9-8------------------3-1-2-3-2-1-2------------|
D|--x--x--x--x--x--x--x--x-x-x-x-x---x1-------------------------------x8-----|
A|-11-11-11-11-10-10-11--7-7-7-7-6-------------------------------------------|
D|---------------------------------------------------------------------------|


e|---------------------------------------------------------------------------|
B|---------------------------------------------------------------------------|
G|------------------------4-3-3-3-3-4-4-3-3-3-3------------------------------|
D|-4-4-4-4-4-6-6-6-6-6-6--2-1-1-1-1-2-2-1-1-1-1---x3-------------------------|
A|-2-2-2-2-2-4-4-4-4-4-4-----------------------------------------------------|
D|---------------------------------------------------------------------------|


e|---------------------------------------------------------------------------|
B|---------------------------------------------------------------------------|
G|------------------------4--------------------------------------------------|
D|-4-4-4-4-4-6-6-6-6-6-6--2----x1--------------------------------------------|
A|-2-2-2-2-2-4-4-4-4-4-4-----------------------------------------------------|
D|---------------------------------------------------------------------------|


e|---------------------------------------------------------------------------|
B|-4-------------------------------------------------------------------------|
G|---3-1-2-3-2-1-2---3-1-2-3-2-1-2--------9-9-9-9-8-8-9--11-11-11-11-10-10-11|
D|-----------------3-----------------x3---x-x-x-x-x-x-x---x--x--x--x--x--x--x|
A|----------------------------------------7-7-7-7-6-6-7---9--9--9--9--8--8--9|
D|---------------------------------------------------------------------------|


|----------------------------------------------------------------------------|
B|---------------------------------------------------------------------------|
G|-13-13-13-13-12-12-13--9-9-9-9-8-------------------------------------------|
D|--x--x--x--x--x--x--x--x-x-x-x-x---x1--------------------------------------|
A|-11-11-11-11-10-10-11--7-7-7-7-6-------------------------------------------|
D|---------------------------------------------------------------------------|


e|---------------------------------------------------------------------------|
B|-4-------------------------------------------------------------------------|
G|---3-1-2-3-2-1-2---3-1-2-3-2-1-2--------9-9-9-9-8-8-9--11-11-11-11-10-10-11|
D|-----------------3-----------------x3---x-x-x-x-x-x-x---x--x--x--x--x--x--x|
A|----------------------------------------7-7-7-7-6-6-7---9--9--9--9--8--8--9|
D|---------------------------------------------------------------------------|


e|---------------------------------------------------------------------------|
B|---------------------------------------------------------------------------|
G|-13-13-13-13-12-12-13--9-9-9-9-8-------------------------------------------|
D|--x--x--x--x--x--x--x--x-x-x-x-x---x1--------------------------------------|
A|-11-11-11-11-10-10-11--7-7-7-7-6-------------------------------------------|
D|---------------------------------------------------------------------------|


e|---------------------------------------------------------------------------|
B|---------------------------------------------------------------------------|
G|---------------------------------------------------------------------------|
D|-1-1-1-3-3-3-4-4-4-3-3-3--1-1-1-3-3-3-4-4-4-3-3-3--1-1-1-3-3-3-4-4-4-3-3-3-|
A|---------------------------------------------------------------------------|
D|---------------------------------------------------------------------------|
  

e|---------------------------------------------------------------------------|
B|-----------------------------------13-13-13-15-15-15-16-16-16-15-15-15-----|
G|---------------------------------------------------------------------------|
D|-------2-2-2-1-1-1-2-2-2---------------------------------------------------|
A|-1-1-1---------------------x2----------------------------------------------|
D|---------------------------------------------------------------------------|


e|---------------------------------------------------------------------------|
B|-13-13-13-15-15-15-16-16-16-15-15-15--13-13-13-15-15-15-16-16-16-15-15-15--|
G|---------------------------------------------------------------------------|
D|---------------------------------------------------------------------------|
A|---------------------------------------------------------------------------|
D|---------------------------------------------------------------------------|


e|----------15-15-15-14-14-14-15-15-15---------------------------------------|
B|-13-13-13------------------------------------------------------------------|
G|---------------------------------------------------------------------------|
D|----------------------------------------x2---------------------------------|
A|---------------------------------------------------------------------------|
E|---------------------------------------------------------------------------|










| /  slide up
| \  slide down
| h  hammer-on
| p  pull-off
| ~  vibrato
| +  harmonic
| x  Mute note
===============================================================================





Comments


Popular Bad Acid Trip tabs & chords
Plate Of Shrimp Bass Tabs
Beef Moo Tabs
Beef Moo Intro Tabs
Cigarette Pack 1 Tabs
Fascist Fuckwad Tabs
Furious Fists Of Jackie Chan Tabs
Habits Of Clay Tabs
Jumprope Spraywater Tabs
Strange Humans Tabs
Wonderful Life Tabs


Song lyrics



↑ Back to top | Tablatures and chords are parodies/interpretations of the original songs. You may use it for private study, scholarship, research or language learning purposes only
© 2014 AZChords.com Contact us | Privacy policy | DMCA | Add/correct tabs | Request tabs | Top 50 tabs