» » »

Bad Acid Trip, Habits Of Clay Tabs (ver.1)

Artists:  A B C D E F G H I J K L M N O P Q R S T U V W X Y Z # 

Habits Of Clay Tabs (ver.1)

Bad Acid Trip Tabs
 Rating:
3.8/5 (5 votes)
Habits Of Clay lessons Tabs too difficult? Try these video lessons and learn fast
1
                
Guitar I  (Heavy Distortion) D A D G B E
Guitar II (Clean)            D A D G B E

This is the first tab I’ve ever actually sent in to here, and I’m pretty sure its is 99% 
The only thing that sounds a little off is the end of the solo. It sounds close enough 
if it isn’t how they play it. Awesome song!

Comments Appreciated!

Intro
Guitar I                           4x
|----------------------------------||
|---------------------------------o||
|----------------------------------||
|--10-10-10-7-7-7-9-9-9-5-5-5------||
|--10-10-10-7-7-7-9-9-9-5-5-5-----o||
|--10-10-10-7-7-7-9-9-9-5-5-5------||

Verse
Guitar II                          2x
|--7-----8------7---------3--------||
|----8-----9------8-----4---------o||
|------9-----10-----9-5------------||
|----------------------------------||
|---------------------------------o||
|----------------------------------||

Guitar I                           2x
|----------------------------------||
|---------------------------------o||
|----------------------------------||
|--10-10-10-7-7-7-9-9-9-5-5-5------||
|--10-10-10-7-7-7-9-9-9-5-5-5-----o||
|--10-10-10-7-7-7-9-9-9-5-5-5------||

Guitar II                          4x
|--7-----8------7---------3--------||
|----8-----9------8-----4---------o||
|------9-----10-----9-5------------||
|----------------------------------||
|---------------------------------o||
|----------------------------------||

Chorus
Guitar I                           4x
|----------------------------------||
|---------------------------------o||
|----------------------------------||
|--10-10-10-7-7-7-9-9-9-5-5-5------||
|--10-10-10-7-7-7-9-9-9-5-5-5-----o||
|--10-10-10-7-7-7-9-9-9-5-5-5------||

Guitar I (staccato)                4x
|----------------------------------||
|---------------------------------o||
|----------------------------------||
|----------------------------------||
|--10-10-10-7-7-7-9-9-9-5-5-5-----o||
|--10-10-10-7-7-7-9-9-9-5-5-5------||

Solo
Guitar II
|------------------------------------------------------|
|------------------------------------------------------|
|--4-5-4-------------------4-5-4-----------------------|
|--------5-4-5-2-4-5-------------5-4-5-2-4-5-2-0-2-----|
|--------------------5-3-2-----------------------------|
|------------------------------------------------------|

|---------------------------------------7-8-7-10-8-7---|
|--------------------------7-8-7-10-8-7-7-8-7-10-8-7---|
|--4-5-4-------------------7-8-7-10-8-7----------------|
|--------5-4-5-2-4-5-----------------------------------|
|--------------------5-3-2-----------------------------|
|------------------------------------------------------|

Chorus
Guitar I                           8x
|----------------------------------||
|---------------------------------o||
|----------------------------------||
|--10-10-10-7-7-7-9-9-9-5-5-5------||
|--10-10-10-7-7-7-9-9-9-5-5-5-----o||
|--10-10-10-7-7-7-9-9-9-5-5-5------||

Outro
Guitar II                         8x
|--7-----8------7---------3--------||--7~~~------------||
|----8-----9------8-----4---------o||--8~~~------------||
|------------10-----9-5------------||--9~~~------------||
|----------------------------------||------------------||
|---------------------------------o||------------------||
|----------------------------------||------------------||
            
Submit corrections

comments powered by Disqus
↑ Back to top | Bad Acid Trip Tabs for Habits Of Clay. Lyrics for acoustic guitar and electric guitar. 1 Tablatures and chords are parodies/interpretations of the original songs. You may use it for private study, scholarship, research or language learning purposes only