» » »

Fascist Fuckwad Tabs (ver.1)

Artists:  A B C D E F G H I J K L M N O P Q R S T U V W X Y Z # 

Fascist Fuckwad Tabs (ver.1)

Bad Acid Trip
Rating:
4/5 (1 vote)

Hard to play? Try these video lessons and learn fast.
                -------------------------------------------------------------------------------
-------------------------------------------------------------------------------

Tuning: Dropped D --- D A D G B e ---

e|---------------------------------------------------------------------------|
B|---------------------------------------------------------------------------|
G|------------------------12-11--5544----------------------------------------|
D|-3---10-9-10-9-8---------x--x--xxxx---x4----3---10-9-10-9-8----------------|
A|-3---10-9-10-9-8--x6----10--9--3322---------3---10-9-10-9-8---x4-----------|
D|-3---10-9-10-9-8----------------------------3---10-9-10-9-8----------------|


e|---------------------------------------------------------------------------|
B|---------------------------------------------------------------------------|
G|-11-10--5544---------------------------------------------------------------|
D|--x--x--xxxx---x4----------------------------------------------------------|
A|-10--9--3322---------------------------------------------------------------|
D|---------------------------------------------------------------------------|
                                   Breakdown Part

e|---------------------------------------------------------------------------|
B|---------------------------------------------------------------------------|
G|---------------------------------------------------------------------------|
D|-3333333366664466---------3333333366664466---------------------------------|
A|-1111111144442244---x2----1111111144442244---x4----------------------------|
D|---------------------------------------------------------------------------|
   xxxxxxxxxxxxxxxx

e|---------------------------------------------------------------------------|
B|---------------------------------------------------------------------------|
G|------------------------12-11--5544----------------------------------------|
D|-3---10-9-10-9-8---------x--x--xxxx---x4-----------------------------------|
A|-3---10-9-10-9-8--x4----10--9--3322----------------------------------------|
D|-3---10-9-10-9-8-----------------------------------------------------------|



| /  slide up
| \  slide down
| h  hammer-on
| p  pull-off
| ~  vibrato
| +  harmonic
| x  Mute note
===============================================================================
            
Hard to play? Try these video lessons and learn fast. | Correct




comments powered by Disqus
↑ Back to top | Tablatures and chords are parodies/interpretations of the original songs. You may use it for private study, scholarship, research or language learning purposes only