» » »

Backyard Babies, U.F.O. Romeo Bass tabs (ver.1)

Artists:  A B C D E F G H I J K L M N O P Q R S T U V W X Y Z # 

U.F.O. Romeo Bass tabs (ver.1)

Backyard Babies Tabs
 Rating:
4/5 (4 votes)
U.F.O. Romeo lessons Tabs too difficult? Try these video lessons and learn fast
                Taken From - Total 13

Intro 1:
G|-----------------|
D|-----------------|
A|-----------------|
E|--2~-----2~------|

Intro 2:
G|---------------------------------|
D|---------------------------------|
A|---------------------------------|
E|-2--0-2-4--5-4-2-0-2-4444-5------|

Pre-Chorus1:
G|--------------------------------------------------|
D|--------------------------------10-11-12-11-10-10-|
A|-5-5-5-5-5-5-5-5/10-10-10-10-10/------------------|
E|--------------------------------------------------|
                                   ^^^^^^^^^^^^Fast! 
Verse:
G|--------------------------------------|
D|--------------------------------------|
A|--------------------------------------|
E|-5-5-5-5-5-5-5-5--2-2-2-2-2-2-3-2-3-2-|

G|---------------------------------|
D|---------------------------------|
A|---------------------------------|
E|-5-5-5-5-5-5-5-5-3-3-3-3-3-3-3-3-|

Pre-Chorus 2:
G|--------------------------------------------------|
D|--------------------------------------------------|
A|--------------------------------10-11-12-11-10-10-|
E|-5-5-5-5-5-5-5-5/10-10-10-10-10/------------------|

Chorus:
G|---------------------------------|
D|---------------------------------|
A|---------------------------------|
E|-2--0-2-4--5-4-2-0-2-4444-5------|

Bridge:
G|----------------------------------------------|
D|----------------------------------------------|
A|---------55555555-9-10-10-9-10-10-9-10-10-9-9-|
E|-0~-------------------------------------------|

Solo:
G|---------------------------------|
D|---------------------------------|
A|---------------------------------|
E|-2--0-2-4--5-4-2-0-2-4444-5------|


Order:
Intro 2 - x2
Intro 2 - x3 
Pre-Chorus1 - x1
Verse - x1
Pre-Chorus2 - x1
Chorus - x2
Verse - x1
Pre-Chorus1 - x1
Chorus - x2
Bridge - x1
Solo - x2
Pre-Chorus1 - x1
Chorus - x2



+---------------------------+ 
|     Taken from Dreggy's   | 
+---------------------------+
            
Submit corrections

comments powered by Disqus
↑ Back to top | Backyard Babies Bass for U.F.O. Romeo. Lyrics for acoustic guitar and electric guitar. Tablatures and chords are parodies/interpretations of the original songs. You may use it for private study, scholarship, research or language learning purposes only