» » »

The Clash Tabs (ver.1)

Artists:  A B C D E F G H I J K L M N O P Q R S T U V W X Y Z # 

The Clash Tabs (ver.1)

Backyard Babies
Rating:
0/5 (0 votes)

Hard to play? Try these video lessons and learn fast.
                A   =  0 0 2 2 2 0
C#m =  x x 2 1 2 0
B   =  x x 4 4 4 x
E   =  0 2 2 1 0 0
F#  =  x x 4 3 2 2
F#m =  x x 4 2 2 2

Intro:

Guitar 1
E|------------------------|
B|------------------------|
G|------------------------|
D|------------------------|
A|-4--4--4--4--4--4--4--4-|
E|-2--0--2--0--2--0--2--0-|

Guitar 2
e|------------------------|
B|------------------------|
G|-6--4--6--4--6--4--6--4-|
D|------------------------|
A|------------------------|
E|------------------------|


   C#m	   E	    B		    F#
e|------------------------|-------------------------------|
B|-5-4--------------------|-5-4-4-5-5-7-7--5-5-4-5-4------|
G|-------6--4-6-6---------|---------------------------4-6-|
D|------------------------|-------------------------------|
A|------------------------|-------------------------------|
E|------------------------|-------------------------------|

Verse:

C#m E  B F#

Brideriff:
Guitar 1               Guitar 2
E|------------------|------------------------|
B|------------------|---5--4---5--4---5--4---|
G|------------------|--------4------4------4-|
D|------------------|------------------------| x2
A|-4--4--4----------|------------------------|
E|-2--2--0--2-3-2-0-|------------------------|

   F#m       C#m       B           A  
E|-2--2--2---0--0---|--x--x--x----0--0--2----|
B|-2--2--2---2--2---|--4--4--4----2--2--2----|
G|-2--2--2---1--1---|--4--4--4----2--2--2----|
D|-4--4--4---2--2---|--4--4--4----2--2--2----| x2
A|-x--x--x---x--x---|--0--0--0----0--0--0----|
E|-x--x--x---x--x---|--x--x--x----0--0--0----|

I need some help to do a tab for the solo part
            
Hard to play? Try these video lessons and learn fast. | Correct




comments powered by Disqus
↑ Back to top | Tablatures and chords are parodies/interpretations of the original songs. You may use it for private study, scholarship, research or language learning purposes only