» » »

Robber Of Life Bass tabs (ver.1)

Artists:  A B C D E F G H I J K L M N O P Q R S T U V W X Y Z # 

Robber Of Life Bass tabs (ver.1)

Backyard Babies
Rating:
0/5 (0 votes)

Tabs too difficult? Try these video lessons and learn fast.
                Tuned Down 1/2 a step Eb Ab Db Gb

Intro:
Gb|-------------------------|
Db|-------------------------|
Ab|-4-4---------------------|
Eb|-----5-5-7-7-7-7-7-7-7-7-|

Gb|--------------------------|
Db|--------------------------|
Ab|-4-4-----------6h7-6------|
Eb|-----5-5-7-7-7------------|

Gb|-----------------------------|
Db|-----------------------------|
Ab|-4-4-------------------------|
Eb|-----5-5-7-7-7-7-7-7-7-7--4~-|

Chorus 1:
Gb|-------------------------|
Db|-------------------------|
Ab|-4-4-----7-7-7-7-7-7-7-7-|
Eb|-----5-5-----------------|

Gb|--------------------------|
Db|--------------------------|
Ab|-4-4---------6h7-6--------|
Eb|-----5-5-7-7-7------------|

Gb|--------------------------|
Db|--------------------------|
Ab|-4-4----------------------|
Eb|------5-5-7-7-7-7-7-7-7-7-|

Gb|--------------------------|
Db|--------------------------|
Ab|-4-4------7-7-7-7-7-7-7-7-|
Eb|------5-5-----------------|


Verse 1:
Gb|----------------------------------------------------------------|
Db|----------------------------------------------------------------|
Ab|---------------------------------2-2-2-2-2-2-2-2-2-2-2-2-2-2-2-2|
Eb|-4-4-4-4-4-4-4-4-4-4-4-4-4-4-4-4--------------------------------|

Gb|----------------------------------------------------------------|
Db|----------------------------------------------------------------|
Ab|---------------------------------4-4-4-4-4-4-4-4-(4)-(4)-(4)-(4)|
Eb|-0-0-0-0-0-0-0-0-0-0-0-0-0-0-0-0--------------------------------|

Chorus 2:
Gb|-------------------------|
Db|-------------------------|
Ab|-4-4-----7-7-7-7-7-7-7-7-|
Eb|-----5-5-----------------|

Gb|--------------------------|
Db|--------------------------|
Ab|-4-4-----------6h7-6------|
Eb|-----5-5-7-7-7------------|

Gb|-------------------------|
Db|-------------------------|
Ab|-4-4---------------------|
Eb|-----5-5-7-7-7-7-7-7-7-7-|

Gb|-------------------------|
Db|-------------------------|
Ab|-4-4-----7~--------------|
Eb|-----5-5-----------------|

Verse 2:
Gb|----------------------------------------------------------------|
Db|----------------------------------------------------------------|
Ab|---------------------------------2-2-2-2-2-2-2-2-2-2-2-2-2-2-2-2|
Eb|-4-4-4-4-4-4-4-4-4-4-4-4-4-4-4-4--------------------------------|

Gb|----------------------------------------------------------------|
Db|----------------------------------------------------------------|
Ab|---------------------------------4-4-4-4-4-4-4-4-4-4-4-4-4-4-4-4|
Eb|-0-0-0-0-0-0-0-0-0-0-0-0-0-0-0-0--------------------------------|

Solo 1:
Gb|-------------------------|
Db|-------------------------|
Ab|-4-4-----7-7-7-7-7-7-7-7-|
Eb|-----5-5-----------------|

Gb|--------------------------|
Db|--------------------------|
Ab|-4-4-----------6h7-6------|
Eb|-----5-5-7-7-7------------|

Gb|-------------------------|
Db|-------------------------|
Ab|-4-4---------------------|
Eb|-----5-5-7-7-7-7-7-7-7-7-|

Gb|-------------------------|
Db|-------------------------|
Ab|-4-4-----7~--------------|
Eb|-----5-5-----------------|

Verse 3:
Gb|----------------------------------------------------------------|
Db|----------------------------------------------------------------|
Ab|---------------------------------2-2-2-2-2-2-2-2-2-2-2-2-2-2-2-2|
Eb|-4-4-4-4-4-4-4-4-4-4-4-4-4-4-4-4--------------------------------|

Gb|----------------------------------------------------------------|
Db|----------------------------------------------------------------|
Ab|---------------------------------4-4-4-4-4-4-4-4-4-4-4-4-4-4-4-4|
Eb|-0-0-0-0-0-0-0-0-0-0-0-0-0-0-0-0--------------------------------|

Solo 2:
Gb|-------------------------|
Db|-------------------------|
Ab|-4-4-----7-7-7-7-7-7-7-7-|
Eb|-----5-5-----------------|

Gb|--------------------------|
Db|--------------------------|
Ab|-4-4-----------6h7-6------|
Eb|-----5-5-7-7-7------------|

Gb|-------------------------|
Db|-------------------------|
Ab|-4-4---------------------|
Eb|-----5-5-7-7-7-7-7-7-7-7-|

Gb|-------------------------|
Db|-------------------------|
Ab|-4-4-----7~--------------|
Eb|-----5-5-----------------|

Bridge:
Gb|-------------------------------|
Db|-------------------------------|
Ab|-4-4-4-4-(4)(4)(4)-4-4-4-4-----|
Eb|---------------------------5-7-|

Gb|--------------------------|
Db|--------------------------|
Ab|-4-4-4-4------------------|
Eb|---------5-7-7-7-7-7-7-7-7|

Gb|--------------------------|
Db|--------------------------|
Ab|-4-4-4-4------------------|
Eb|---------5-7-7-7-7-7-7-7-7|

Gb|---------------------------|
Db|---------------------------|
Ab|-4-4-----------------------|
Eb|-------7-7---5-5---7-7--0~-|

Chorus 3:
Gb|---------------------|
Db|---------------------|
Ab|-4-------------------|
Eb|---5-7-7-7-7-7-7-7-7-|

Gb|-------------------------|
Db|-------------------------|
Ab|-4-4-----7-7-7-7-7-7-7-7-|
Eb|-----5-5-----------------|

Gb|-------------------------|
Db|-------------------------|
Ab|-4-4-----7-7-7-7-7-7-7-7-|
Eb|-----5-5-----------------|

Gb|-------------------------|
Db|-------------------------|
Ab|-4-4---------------------|
Eb|-----5-5-7-7-7-7-7-7-7-7-|

Chorus 4:
Gb|-------------------------|
Db|-------------------------|
Ab|-4-4---------------------|
Eb|-----5-5-7-7-7-7-7-7-7-7-|

Gb|-------------------------|
Db|-------------------------|
Ab|-4-4-----7-7-7-7-7-7-7-7-|
Eb|-----5-5-----------------|

Gb|-------------------------|
Db|-------------------------|
Ab|-4-4---------------------|
Eb|-----5-5-7-7-7-7-7-7-7-7-|

Gb|----------|
Db|----------|
Ab|-4-4------|
Eb|-----5-5--|

Outro 1:
Gb|-----------------------------|
Db|-----------------------------|
Ab|-----------------------------|
Eb|-7-7-7-7-7-7-7-7(x8)-7-7-7-7-|

Gb|----------------------------------|
Db|----------------------------------|
Ab|-4-4------------------------------|
Eb|-----5-5-5-5-5-5-5-5-(x4)-5-5-5-5-|

Gb|---------------------------------|
Db|---------------------------------|
Ab|-4-4-----------------------------|
Eb|-----7-7-7-7-7-7-7-7-(x4)-7-7-7-7|

Gb|----------------------------------|
Db|----------------------------------|
Ab|-4-4------------------------------|
Eb|-----5-5-5-5-5-5-5-5-(x4)-5-5-5-5-|

Gb|---------------------------------|
Db|---------------------------------|
Ab|-4-4-----------------------------|
Eb|-----7-7-7-7-7-7-7-7-(x4)-7-7-7-7|

Gb|----------------------------------|
Db|----------------------------------|
Ab|-4-4------------------------------|
Eb|-----5-5-5-5-5-5-5-5-(x4)-5-5-5-5-|

Gb|---------------------------------|
Db|---------------------------------|
Ab|-4-4-----------------------------|
Eb|-----7-7-7-7-7-7-7-7-(x4)-7-7-7-7|

Gb|----------------------------------|
Db|----------------------------------|
Ab|-4-4------------------------------|
Eb|-----5-5-5-5-5-5-5-5-(x4)-5-5-5-5-|

Gb|---------------------------------|
Db|---------------------------------|
Ab|-4-4-----------------------------|
Eb|-----7-7-7-7-7-7-7-7-(x4)-7-7-7-7|

Gb|----------------------------------|
Db|----------------------------------|
Ab|-4-4------------------------------|
Eb|-----5-5-5-5-5-5-5-5-(x4)-5-5-5-5-|

Gb|---------------------------------|
Db|---------------------------------|
Ab|-4-4-----------------------------|
Eb|-----7-7-7-7-7-7-7-7-(x4)-7-7-7-7|

Gb|----------------------------------|
Db|----------------------------------|
Ab|-4-4------------------------------|
Eb|-----5-5-5-5-5-5-5-5-(x4)-5-5-5-5-|

Gb|---------------------------------|
Db|---------------------------------|
Ab|-4-4-----------------------------|
Eb|-----7-7-7-7-7-7-7-7-(x4)-7-7-7-7|

Gb|----------------------------------|
Db|----------------------------------|
Ab|-4-4------------------------------|
Eb|-----5-5-5-5-5-5-5-5-(x4)-5-5-5-5-|

Gb|---------------------------------|
Db|---------------------------------|
Ab|-4-4-----------------------------|
Eb|-----7-7-7-7-7-7-7-7-(x4)-7-7-7-7|

Gb|----------------------------------|
Db|----------------------------------|
Ab|-4-4------------------------------|
Eb|-----5-5-5-5-5-5-5-5-(x4)-5-5-5-5-|

Gb|---------------------------------|
Db|---------------------------------|
Ab|-4-4-----------------------------|
Eb|-----7-7-7-7-7-7-7-7-(x4)-7-7-7-7|

Outro 2:
Gb|---------------------------------------|
Db|---------------------------------------|
Ab|-4-4-4-4---4-4-4-4---4-4-4-4---4-4-4-4-|
Eb|---------------------------------------|

Gb|--------------------------------|
Db|--------------------------------|
Ab|-4---4---4----4---4---4---4---4-|
Eb|--------------------------------|

Gb|----------------------------------------|
Db|----------------------------------------|
Ab|-4-4-4-4---4-4-4-4---4-4-4-4---4-4-4-4~-|
Eb|----------------------------------------|

+---------------------------+
|     Taken from Dreggy's   |
+---------------------------+
            
Tabs too difficult? Try these video lessons and learn fast.




comments powered by Disqus
↑ Back to top | Tablatures and chords are parodies/interpretations of the original songs. You may use it for private study, scholarship, research or language learning purposes only