» » »

Backyard Babies, One Sound Tabs (ver.1)

Artists:  A B C D E F G H I J K L M N O P Q R S T U V W X Y Z # 

One Sound Tabs (ver.1)

Backyard Babies Tabs
Rating:
5/5 (1 vote)
Hard to play? Try these video lessons and learn fast.
                A great BYB-song from "Stockholm Syndrome".




One Sound One!

e|----------------------------------|
B|----------------------------------|
G|-8-5-5-----5-8--8-5-5-5-------8-5-|
D|-8-5-5-5-8-5-8--8-5-5-5-5-5-8-8-5-|
A|-6-3-3-5-8-3-6--6-3-3-3-5-5-8-6-3-|
E|-------3-6--------------3-3-6-----|

e|------------------------------------------------|
B|------------------------------------------------|
G|-8-5-5-----5-8--8-5-5-5-10-10-10-10-10-10-10\11-|
D|-8-5-5-5-8-5-8--8-5-5-5-10-10-10-10-10-10-10\11-|
A|-6-3-3-5-8-3-6--6-3-3-3-8--8--8--8--8--8--8-\9--|
E|-------3-6--------------------------------------|

Verse:

E|----------------------|
B|----------------------|
G|-8---5---------8----5-|
D|-8---5---5--8--8----5-|  One sound, one love
A|-6---3---5--8--6----3-|
E|---------3--6---------|

E|----------------------|
B|----------------------|
G|-8---5---------8----5-|
D|-8---5---5--8--8----5-|  Something you should think of
A|-6---3---5--8--6----3-|
E|---------3--6---------|

Chorus:

E|----------------------------------|
B|----------------------------------|
G|-8-5-5-----5-8--8-5-5-5-------8-5-|
D|-8-5-5-5-8-5-8--8-5-5-5-5-5-8-8-5-|
A|-6-3-3-5-8-3-6--6-3-3-3-5-5-8-6-3-|
E|-------3-6--------------3-3-6-----|

E|------------------------------------------------|
B|------------------------------------------------|
G|-8-5-5-----5-8--8-5-5-5-10-10-10-10-10-10-10\11-|
D|-8-5-5-5-8-5-8--8-5-5-5-10-10-10-10-10-10-10\11-|
A|-6-3-3-5-8-3-6--6-3-3-3-8--8--8--8--8--8--8-\9--|
E|-------3-6--------------------------------------|


...the whole way through...
it's quite simple, but funny to play, enjoy it!
            

comments powered by Disqus
↑ Back to top | Backyard Babies Tabs for One Sound. Lyrics for acoustic guitar and electric guitar. Tablatures and chords are parodies/interpretations of the original songs. You may use it for private study, scholarship, research or language learning purposes only