» » »

Backyard Babies, God's Favourite Bass tabs (ver.1)

Artists:  A B C D E F G H I J K L M N O P Q R S T U V W X Y Z # 

God's Favourite Bass tabs (ver.1)

Backyard Babies Tabs
Rating:
0/5 (0 votes)
God's Favourite lessons Tabs too difficult? Try these video lessons and learn fast
                Tuned 1/2 a step down - Eb Ab Db Gb
Intro:
Gb|-----------------------|
Db|-----------------------|
Ab|-3~---1~-------6~------|
Eb|----------4~--------6~-|

Verse:
Gb|----------------------------------------------------------------|
Db|----------------------------------------------------------------|
Ab|-3-3-3-3-3-3-3-3-3-3-3-3-3-3-3-3-1-1-1-1-1-1-1-1-1-1-1-1-1-1-1-1|
Eb|----------------------------------------------------------------|

Gb|--------------------------------------------|
Db|--------------------------------------------|
Ab|-------------------------3-4-3-6-6-6-5-4----|
Eb|-4-4-4-4-4-4-4-4-4-4-4-4-----------------6~-|

Chorus:
Gb|---------------------------------------------------------------|
Db|---------------------------------------------------------------|
Ab|--------------------------------6-6-6-6-6-6-6-6----------------|
Eb|-4-4-4-4-4-4-4-4-6-6-6-6-6-6-6-6---------------4-4-4-4-4-4-4-4-|

Gb|----------------------------------------------------------------|
Db|----------------------------------------------------------------|
Ab|--------------------------------6-6-6-6-6-6-6-6-6-6-6-6-6-6-6-6-|
Eb|-4-4-4-4-4-4-4-4-6-6-6-6-6-6-6-6--------------------------------|

Ending:
Gb|-------------|
Db|-------------|
Ab|-----------6~|
Eb|-4~---6~-----|

This is all you'll need to play the song - remember to play the chorus
during the solo instead of the verse.


+---------------------------+
|     Taken from Dreggy's   |
+---------------------------+
            
Submit corrections

comments powered by Disqus
↑ Back to top | Backyard Babies Bass for God's Favourite. Lyrics for acoustic guitar and electric guitar. Tablatures and chords are parodies/interpretations of the original songs. You may use it for private study, scholarship, research or language learning purposes only