» » »

Backyard Babies, Fuck Off And Die Tabs (ver.1)

Artists:  A B C D E F G H I J K L M N O P Q R S T U V W X Y Z # 

Fuck Off And Die Tabs (ver.1)

Backyard Babies Tabs
Rating:
0/5 (0 votes)
Fuck Off And Die lessons Tabs too difficult? Try these video lessons and learn fast
                I tabbed this song because there weren't any other tabs.
its not perfect, theres no solo, but its better than no tab at all 

: )

Any comments would be appreciated, constructive criticism only please.


Intro




e|--------------------------------------------------------------------------|
B|--------------------------------------------------------------------------|
G|------------4-4--6-6------------------------------------------------------|
D|-----6-6-6--4-4--6-6--6---------------------------------------------------|
A|-----6-6-6--2-2--4-4--6---------------------------------------------------|
D|-----6-6-6------------6---------------------------------------------------|

e|--------------------------------------------------------------------------|
B|--------------------------------------------------------------------------|
G|--------------------------------------------------------------------------|
D|----4--------4--------4--------4--------4---6-----------------------------|
A|-------4--6-----4--6-----4--6-----4--6------------------------------------|
D|--------------------------------------------------------------------------|

Play the Intro twice

Verse

e|--------------------------------------------------------------------------|
B|--------------------------------------------------------------------------|
G|------------4-4--6-6------------------------------------------------------|
D|-----6-6-6--4-4--6-6--6---------------------------------------------------|
A|-----6-6-6--2-2--4-4--6---------------------------------------------------|
D|-----6-6-6------------6---------------------------------------------------|

e|--------------------------------------------------------------------------|
B|--------------------------------------------------------------------------|
G|--------------------------------------------------------------------------|
D|----4--------4--------4--------4--------4---6-----------------------------|
A|-------4--6-----4--6-----4--6-----4--6------------------------------------|
D|--------------------------------------------------------------------------|

e|--------------------------------------------------------------------------|
B|--------------------------------------------------------------------------|
G|------------4-4--6-6------------------------------------------------------|
D|-----6-6-6--4-4--6-6--6---------------------------------------------------|
A|-----6-6-6--2-2--4-4--6---------------------------------------------------|
D|-----6-6-6------------6---------------------------------------------------|

e|--------------------------------------------------------------------------|
B|--------------------------------------------------------------------------|
G|--------------------------------------------------------------------------|
D|----4--------4--------4--------4--------4---6-----------------------------|
A|-------4--6-----4--6-----4--6-----4--6------------------------------------|
D|--------------------------------------------------------------------------|


e|--------------------------------------------------------------------------|
B|--------------------------------------------------------------------------|
G|------------4-4-----------------------------------------------------------|
D|-----6-6-6--4-4--4-4--6---------------------------------------------------|
A|-----6-6-6--2-2--4-4--6---------------------------------------------------|
D|-----6-6-6-------4-4--6---------------------------------------------------|



e|--------------------------------------------------------------------------|
B|--------------------------------------------------------------------------|
G|--------------------------------------------------------------------------|
D|----4--------4--------4--------4--------4---6-----------------------------|
A|-------4--6-----4--6-----4--6-----4--6------------------------------------|
D|--------------------------------------------------------------------------|

e|--------------------------------------------------------------------------|
B|--------------------------------------------------------------------------|
G|------------4-4--6-6------------------------------------------------------|
D|-----6-6-6--4-4--6-6--6---------------------------------------------------|
A|-----6-6-6--2-2--4-4--6---------------------------------------------------|
D|-----6-6-6------------6---------------------------------------------------|

e|--------------------------------------------------------------------------|
B|--------------------------------------------------------------------------|
G|--------------------------------------------------------------------------|
D|----4--------4--------4--------4--------4---------------------------------|
A|-------4--6-----4--6-----4--6-----4--6------------------------------------|
D|--------------------------------------------------------------------------|



Pre-chorus



e|--------------------------------------------------------------------------|
B|--------------------------------------------------------------------------|
G|--------------------------------------------------------------------------|
D|----2-2-2-2-2-2----4-4-4-4-4-4--1-1-1-1-1-1---6-6--6--------4--6--4--6----|
A|----2-2-2-2-2-2----4-4-4-4-4-4--1-1-1-1-1-1---6-6--6--------4--6--4--6----|
D|----2-2-2-2-2-2----4-4-4-4-4-4--1-1-1-1-1-1---6-6--6--------4--6--4--6----|



Chorus


e|--------------------------------------------------------------------------|
B|--------------------------------------------------------------------------|
G|----6--4----2/6-----------------------------------------------------------|
D|----6--4----2/6--6-6----4-6--4-6------------------------------------------|
A|----4--2----2/4--6-6----4-6--4-6------------------------------------------|
D|-----------------6-6----4-6--4-6------------------------------------------|

e|--------------------------------------------------------------------------|
B|--------------------------------------------------------------------------|
G|----6--4------------------------------------------------------------------|
D|----6--4----7-7--6----------4-6--4-6--------------------------------------|
A|----4--2----7-7--6----------4-6--4-6--------------------------------------|
D|------------7-7--6----------4-6--4-6--------------------------------------|

e|--------------------------------------------------------------------------|
B|--------------------------------------------------------------------------|
G|----6--4----2/6----------------------------6-4----------------------------|
D|----6--4----2/6--6-6----4-6--4-6-----------6-4----------------------------|
A|----4--2----2/4--6-6----4-6--4-6-----------4-2----------------------------|
D|-----------------6-6----4-6--4-6------------------------------------------|

Post Chorus


e|--------------------------------------------------------------------------|
B|--------------------------------------------------------------------------|
G|----6---------------------------------------------------------------------|
D|----6-(play this note lots of times)--------------------------------------|
A|----4---------------------------------------------------------------------|
D|--------------------------------------------------------------------------|

e|--------------------------------------------------------------------------|
B|--------------------------------------------------------------------------|
G|--13--13--13--13--13--13--13----------------------------------------------|
D|--13--13--13--13--13--13--13----------------------------------------------|
A|--11--11--11--11--11--13--13----------------------------------------------|
D|--------------------------------------------------------------------------|

Verse 2 

e|--------------------------------------------------------------------------|
B|--------------------------------------------------------------------------|
G|------------4-4--6-6------------------------------------------------------|
D|-----6-6-6--4-4--6-6--6---------------------------------------------------|
A|-----6-6-6--2-2--4-4--6---------------------------------------------------|
D|-----6-6-6------------6---------------------------------------------------|

e|--------------------------------------------------------------------------|
B|--------------------------------------------------------------------------|
G|--------------------------------------------------------------------------|
D|----4--------4--------4--------4--------4---6-----------------------------|
A|-------4--6-----4--6-----4--6-----4--6------------------------------------|
D|--------------------------------------------------------------------------|

e|--------------------------------------------------------------------------|
B|--------------------------------------------------------------------------|
G|------------4-4--6-6------------------------------------------------------|
D|-----6-6-6--4-4--6-6--6---------------------------------------------------|
A|-----6-6-6--2-2--4-4--6---------------------------------------------------|
D|-----6-6-6------------6---------------------------------------------------|

e|--------------------------------------------------------------------------|
B|--------------------------------------------------------------------------|
G|--------------------------------------------------------------------------|
D|----4--------4--------4--------4--------4---6-----------------------------|
A|-------4--6-----4--6-----4--6-----4--6------------------------------------|
D|--------------------------------------------------------------------------|


e|--------------------------------------------------------------------------|
B|--------------------------------------------------------------------------|
G|------------4-4-----------------------------------------------------------|
D|-----6-6-6--4-4--4-4--6---------------------------------------------------|
A|-----6-6-6--2-2--4-4--6---------------------------------------------------|
D|-----6-6-6-------4-4--6---------------------------------------------------|



e|--------------------------------------------------------------------------|
B|--------------------------------------------------------------------------|
G|--------------------------------------------------------------------------|
D|----4--------4--------4--------4--------4---6-----------------------------|
A|-------4--6-----4--6-----4--6-----4--6------------------------------------|
D|--------------------------------------------------------------------------|

e|--------------------------------------------------------------------------|
B|--------------------------------------------------------------------------|
G|------------4-4--6-6------------------------------------------------------|
D|-----6-6-6--4-4--6-6--6---------------------------------------------------|
A|-----6-6-6--2-2--4-4--6---------------------------------------------------|
D|-----6-6-6------------6---------------------------------------------------|

e|--------------------------------------------------------------------------|
B|--------------------------------------------------------------------------|
G|--------------------------------------------------------------------------|
D|----4--------4--------4--------4--------4---------------------------------|
A|-------4--6-----4--6-----4--6-----4--6------------------------------------|
D|--------------------------------------------------------------------------|

Pre-chorus 2



e|--------------------------------------------------------------------------|
B|--------------------------------------------------------------------------|
G|--------------------------------------------------------------------------|
D|----2-2-2-2-2-2----4-4-4-4-4-4--1-1-1-1-1-1---6-6--6--------4--6--4--6----|
A|----2-2-2-2-2-2----4-4-4-4-4-4--1-1-1-1-1-1---6-6--6--------4--6--4--6----|
D|----2-2-2-2-2-2----4-4-4-4-4-4--1-1-1-1-1-1---6-6--6--------4--6--4--6----|


Chorus 2



e|--------------------------------------------------------------------------|
B|--------------------------------------------------------------------------|
G|----6--4----2/6-----------------------------------------------------------|
D|----6--4----2/6--6-6----4-6--4-6------------------------------------------|
A|----4--2----2/4--6-6----4-6--4-6------------------------------------------|
D|-----------------6-6----4-6--4-6------------------------------------------|

e|--------------------------------------------------------------------------|
B|--------------------------------------------------------------------------|
G|----6--4------------------------------------------------------------------|
D|----6--4----7-7--6----------4-6--4-6--------------------------------------|
A|----4--2----7-7--6----------4-6--4-6--------------------------------------|
D|------------7-7--6----------4-6--4-6--------------------------------------|

e|--------------------------------------------------------------------------|
B|--------------------------------------------------------------------------|
G|----6--4----2/6----------------------------6-4----------------------------|
D|----6--4----2/6--6-6----4-6--4-6-----------6-4----------------------------|
A|----4--2----2/4--6-6----4-6--4-6-----------4-2----------------------------|
D|-----------------6-6----4-6--4-6------------------------------------------|

Post Chorus 2


e|--------------------------------------------------------------------------|
B|--------------------------------------------------------------------------|
G|----6---------------------------------------------------------------------|
D|----6-(play this note lots of times)--------------------------------------|
A|----4---------------------------------------------------------------------|
D|--------------------------------------------------------------------------|

e|--------------------------------------------------------------------------|
B|--------------------------------------------------------------------------|
G|--13--13--13--13--13--13--13----------------------------------------------|
D|--13--13--13--13--13--13--13----------------------------------------------|
A|--11--11--11--11--11--13--13----------------------------------------------|
D|--------------------------------------------------------------------------|



Solo (sorry, too many effects to tab)

This is the rhythm behind it though

e|--------------------------------------------------------------------------|
B|--------------------------------------------------------------------------|
G|----6--4----2/6-----------------------------------------------------------|
D|----6--4----2/6--6-6----4-6--4-6------------------------------------------|
A|----4--2----2/4--6-6----4-6--4-6------------------------------------------|
D|-----------------6-6----4-6--4-6------------------------------------------|

e|--------------------------------------------------------------------------|
B|--------------------------------------------------------------------------|
G|----6--4------------------------------------------------------------------|
D|----6--4----7-7--6----------4-6--4-6--------------------------------------|
A|----4--2----7-7--6----------4-6--4-6--------------------------------------|
D|------------7-7--6----------4-6--4-6--------------------------------------|

e|--------------------------------------------------------------------------|
B|--------------------------------------------------------------------------|
G|----6--4----2/6----------------------------6-4----------------------------|
D|----6--4----2/6--6-6----4-6--4-6-----------6-4----------------------------|
A|----4--2----2/4--6-6----4-6--4-6-----------4-2----------------------------|
D|-----------------6-6----4-6--4-6------------------------------------------|

(Play these notes a few times each)
e|--------------------------------------------------------------------------|
B|--------------------------------------------------------------------------|
G|---6----9-----------------------------------------------------------------|
D|---6----9----6------X2----------------------------------------------------|
A|---4----7----6------------------------------------------------------------|
D|-------------6------------------------------------------------------------|

On the second time, goto 

e|-------|
B|-------|
G|-------|
D|--4----| I think its that, but I'm not entirely sure
A|--4----|
D|--4----|


Intro Riff

e|--------------------------------------------------------------------------|
B|--------------------------------------------------------------------------|
G|------------4-4--6-6------------------------------------------------------|
D|-----6-6-6--4-4--6-6--6---------------------------------------------------|
A|-----6-6-6--2-2--4-4--6---------------------------------------------------|
D|-----6-6-6------------6---------------------------------------------------|

Verse 3
e|--------------------------------------------------------------------------|
B|--------------------------------------------------------------------------|
G|--------------------------------------------------------------------------|
D|----4--------4--------4--------4--------4---6-----------------------------|
A|-------4--6-----4--6-----4--6-----4--6------------------------------------|
D|--------------------------------------------------------------------------|

e|--------------------------------------------------------------------------|
B|--------------------------------------------------------------------------|
G|------------4-4--6-6------------------------------------------------------|
D|-----6-6-6--4-4--6-6--6---------------------------------------------------|
A|-----6-6-6--2-2--4-4--6---------------------------------------------------|
D|-----6-6-6------------6---------------------------------------------------|

e|--------------------------------------------------------------------------|
B|--------------------------------------------------------------------------|
G|--------------------------------------------------------------------------|
D|----4--------4--------4--------4--------4---6-----------------------------|
A|-------4--6-----4--6-----4--6-----4--6------------------------------------|
D|--------------------------------------------------------------------------|


e|--------------------------------------------------------------------------|
B|--------------------------------------------------------------------------|
G|------------4-4-----------------------------------------------------------|
D|-----6-6-6--4-4--4-4--6---------------------------------------------------|
A|-----6-6-6--2-2--4-4--6---------------------------------------------------|
D|-----6-6-6-------4-4--6---------------------------------------------------|



e|--------------------------------------------------------------------------|
B|--------------------------------------------------------------------------|
G|--------------------------------------------------------------------------|
D|----4--------4--------4--------4--------4---6-----------------------------|
A|-------4--6-----4--6-----4--6-----4--6------------------------------------|
D|--------------------------------------------------------------------------|

e|--------------------------------------------------------------------------|
B|--------------------------------------------------------------------------|
G|------------4-4--6-6------------------------------------------------------|
D|-----6-6-6--4-4--6-6--6---------------------------------------------------|
A|-----6-6-6--2-2--4-4--6---------------------------------------------------|
D|-----6-6-6------------6---------------------------------------------------|

e|--------------------------------------------------------------------------|
B|--------------------------------------------------------------------------|
G|--------------------------------------------------------------------------|
D|----4--------4--------4--------4--------4---------------------------------|
A|-------4--6-----4--6-----4--6-----4--6------------------------------------|
D|--------------------------------------------------------------------------|


Pre-Chorus 3
e|--------------------------------------------------------------------------|
B|--------------------------------------------------------------------------|
G|--------------------------------------------------------------------------|
D|----2-2-2-2-2-2----4-4-4-4-4-4--1-1-1-1-1-1---6-6--6--------4--6--4--6----|
A|----2-2-2-2-2-2----4-4-4-4-4-4--1-1-1-1-1-1---6-6--6--------4--6--4--6----|
D|----2-2-2-2-2-2----4-4-4-4-4-4--1-1-1-1-1-1---6-6--6--------4--6--4--6----|


Chorus 3


e|--------------------------------------------------------------------------|
B|--------------------------------------------------------------------------|
G|----6--4----2/6-----------------------------------------------------------|
D|----6--4----2/6--6-6----4-6--4-6------------------------------------------|
A|----4--2----2/4--6-6----4-6--4-6------------------------------------------|
D|-----------------6-6----4-6--4-6------------------------------------------|

e|--------------------------------------------------------------------------|
B|--------------------------------------------------------------------------|
G|----6--4------------------------------------------------------------------|
D|----6--4----7-7--6----------4-6--4-6--------------------------------------|
A|----4--2----7-7--6----------4-6--4-6--------------------------------------|
D|------------7-7--6----------4-6--4-6--------------------------------------|

e|--------------------------------------------------------------------------|
B|--------------------------------------------------------------------------|
G|----6--4----2/6-----------------------------------------------------------|
D|----6--4----2/6--6-6----4-6--4-6------------------------------------------|
A|----4--2----2/4--6-6----4-6--4-6------------------------------------------|
D|-----------------6-6----4-6--4-6------------------------------------------|


e|--------------------------------------------------------------------------|
B|--------------------------------------------------------------------------|
G|----6-4-------------------------------------------------------------------|
D|----6-4----7-7-7--6-------------------------------------------------------|
A|----4-2----7-7-7--6-------------------------------------------------------|
D|-----------7-7-7--6-------------------------------------------------------|

Play Chorus 3 twice


e|--------------------------------------------------------------------------|
B|--------------------------------------------------------------------------|
G|--------------------------------------------------------------------------|
D|----7-7-7-6---------------------------------------------------------------|
A|----7-7-7-6----X3,(on the third time, let the last note ring)-------------|
D|----7-7-7-6---------------------------------------------------------------|
            
Submit corrections

comments powered by Disqus
↑ Back to top | Backyard Babies Tabs for Fuck Off And Die. Lyrics for acoustic guitar and electric guitar. Tablatures and chords are parodies/interpretations of the original songs. You may use it for private study, scholarship, research or language learning purposes only