>
 >
Come Undone

Come Undone Guitar Tabs

Backyard Babies - Come Undone chords, tabs, tablatures, lyrics

Guitar lessons | Add/correct | Request | Top 50 tabs Artists:  A B C D E F G H I J K L M N O P Q R S T U V W X Y Z 0-9

Come Undone Guitar Tabs – Backyard Babies

CD, Sheet music, Poster

Do you like Come Undone? Share with your friends now
Tabs
Come Undone BY: The Backyard Babies

Off the new album. Catchy song.

Standard Tuning


Intro/Verse 1:

e------------------------------------------------|
B------------------------------------------------|
G---6-6--8-8--11-11--6-6---6-6--8-8--11--6-6-6---|
D---6-6--8-8--11-11--6-6---6-6--8-8--11--6-6-6---|  (Play 3X)
A---4-4--6-6--9--9---4-4---4-4--6-6--9---4-4-4---|
E------------------------------------------------|

Nah Nah Nah Nah Part:

e-------------------------------------------------------------|
B-------------------------------------------------------------|
G---6-6--8-8--11-11--6-6---6-6--8-8--11-11-11-11--------------|
D---6-6--8-8--11-11--6-6---6-6--8-8--11-11-11-11-/pickslide/--|
A---4-4--6-6--9--9---4-4---4-4--6-6--9--9--9--9---------------|
E-------------------------------------------------------------|

Verse 2:

e------------------------------------------------|
B------------------------------------------------|
G---6-6--8-8--11-11--6-6---6-6--8-8--11--6-6-6---|
D---6-6--8-8--11-11--6-6---6-6--8-8--11--6-6-6---|  (Play 2X)
A---4-4--6-6--9--9---4-4---4-4--6-6--9---4-4-4---|
E------------------------------------------------|

Nah Nah Nah Nah Part 2:

e------------------------------------------------------------|
B------------------------------------------------------------|
G---6-6--8-8--11-11--6-6---6-6--8-8-----13--13--13--11--10---|
D---6-6--8-8--11-11--6-6---6-6--8-8--------------------------|
A---4-4--6-6--9--9---4-4---4-4--6-6-----11--11--11--9---8----|
E------------------------------------------------------------|

Chorus 1:

e----------------------------------------------------------------------------|
B----------------------------------------------------------------------------|
G--6-------------------------------------6-----------------------3--3-4-5-6--|
D--6-(x16)-6-------4-------8------6------6-(x16)-6-------4-------3--3-4-5-6--|
A--4-------6-(x16)-4-(x16)-8-(x8)-6-(x8)-4-------6-(x16)-4-(x16)-1--1-2-3-4--|
E----------4-------2-------6------4--------------4-------2-------------------|

Verse 3:

e------------------------------------------------|
B------------------------------------------------|
G---6-6--8-8--11-11--6-6---6-6--8-8--11--6-6-6---|
D---6-6--8-8--11-11--6-6---6-6--8-8--11--6-6-6---|  (Play 3X)
A---4-4--6-6--9--9---4-4---4-4--6-6--9---4-4-4---|
E------------------------------------------------|

Nah Nah Nah Nah Part 3:

e------------------------------------------------------------|
B------------------------------------------------------------|
G---6-6--8-8--11-11--6-6---6-6--8-8-----13--13--13--11--10---|
D---6-6--8-8--11-11--6-6---6-6--8-8--------------------------|
A---4-4--6-6--9--9---4-4---4-4--6-6-----11--11--11--9---8----|
E------------------------------------------------------------|

Chorus 2:

e-------------------------------------------------------------------|
B-------------------------------------------------------------------|
G---6-------------------------------------6-------------------------|
D---6-(x16)-6-------4-------8------6------6-(x16)-6-------4---------|
A---4-------6-(x16)-4-(x16)-8-(x8)-6-(x8)-4-------6-(x16)-4-(x16)---|
E-----------4-------2-------6------4--------------4-------2---------|

Chorus 2 Continued:

e--------------------------------------|
B--------------------------------------|
G--------------------------------------|
D---8-----4-----8-----4-----6----------|
A---8-----4-----8-----4-----6-(x16)----|
E---6-----2-----6-----2-----4----------|

Solo: (Rhythm Guitar Only)

e------------------------------------------------|
B------------------------------------------------|
G---6-6--8-8--11-11--6-6---6-6--8-8--11--6-6-6---|
D---6-6--8-8--11-11--6-6---6-6--8-8--11--6-6-6---|
A---4-4--6-6--9--9---4-4---4-4--6-6--9---4-4-4---|
E------------------------------------------------|

e------------------------------------------------|
B------------------------------------------------|
G---6-6--8-8--11-11--6-6---6-6--8-8--11----------|
D---6-6--8-8--11-11--6-6---6-6--8-8--11-(x16)----|
A---4-4--6-6--9--9---4-4---4-4--6-6--9-----------|
E------------------------------------------------|

Bridge:

e-------------------------------------|
B-------------------------------------|
G---13--------------------------------|
D---13-(x16)-13-------8-----6-----4---|
A---11-------13-(x16)-8-----6-----4---|
E------------11-------6-----4-----2---|

e------------------------------------------------|
B------------------------------------------------|
G---6-6--8-8--11-11--6-6---6-6--8-8--11--6-6-6---|
D---6-6--8-8--11-11--6-6---6-6--8-8--11--6-6-6---|  (Play 2X)
A---4-4--6-6--9--9---4-4---4-4--6-6--9---4-4-4---|
E------------------------------------------------|

e------------------------------------------------------------|
B------------------------------------------------------------|
G---6-6--8-8--11-11--6-6---6-6--8-8-----13--13--13--11--10---|
D---6-6--8-8--11-11--6-6---6-6--8-8--------------------------|
A---4-4--6-6--9--9---4-4---4-4--6-6-----11--11--11--9---8----|
E------------------------------------------------------------|

Chorus 3:

e----------------------------------------------------------------------------|
B----------------------------------------------------------------------------|
G--6-------------------------------------6-----------------------3--3-4-5-6--|
D--6-(x16)-6-------4-------8------6------6-(x16)-6-------4-------3--3-4-5-6--|
A--4-------6-(x16)-4-(x16)-8-(x8)-6-(x8)-4-------6-(x16)-4-(x16)-1--1-2-3-4--|
E----------4-------2-------6------4--------------4-------2-------------------|

Outro:

e------------------------------------------------|
B------------------------------------------------|
G---6-6--8-8--11-11--6-6---6-6--8-8--11--6-6-6---|
D---6-6--8-8--11-11--6-6---6-6--8-8--11--6-6-6---|  (Play 3X)
A---4-4--6-6--9--9---4-4---4-4--6-6--9---4-4-4---|
E------------------------------------------------|

e-----------------------------------------------------------|
B-----------------------------------------------------------|
G---11--------------------------------------------------6---|
D---11-(x64 which is the same as 4 measures)---(End On)-6---|
A---9---------------------------------------------------4---|
E-----------------------------------------------------------|

Im workin on the solo. Its pretty tough. Please rate.

Social D Rox





Comments


Popular Backyard Babies tabs & chords
Babylon Bass Tabs
Let's Go To Hell 1 Bass Tabs
Friends Chords
Look At You Chords
Saved By The Bell 1 Chords
Backstabber Tabs
Dysfunctional Professional Tabs
One Sound Tabs
Be Myself And I Ukulele
Roads Ukulele


Song lyrics



↑ Back to top | Tablatures and chords are parodies/interpretations of the original songs. You may use it for private study, scholarship, research or language learning purposes only
© 2014 AZChords.com Contact us | Privacy policy | DMCA | Add/correct tabs | Request tabs | Top 50 tabs