>
 >
Abandon

Abandon Guitar Tabs

Backyard Babies - Abandon chords, tabs, tablatures, lyrics

Guitar lessons | Add/correct | Request | Top 50 tabs Artists:  A B C D E F G H I J K L M N O P Q R S T U V W X Y Z 0-9

Abandon Guitar Tabs – Backyard Babies

CD, Sheet music, Poster

Do you like Abandon? Share with your friends now
Bass TabsBass Tabs v2ChordsChords v2TabsUkulele

ABANDON
As recorded by Backyard Babies
(From the 2008 Album BACKYARD BABIES)

	

Words and Music by Backyard Babies

Gtr I (Eb Ab Db Gb Bb Eb) - 'Acoustic'
Gtr II (Eb Ab Db Gb Bb Eb) - 'Rhythm'
Gtr III (Eb Ab Db Gb Bb Eb) - 'Lead'

    Q=85
   4/4
    Gtr I
     E   S    E    S   E   S    E    S   S  S   S    S
||--^2-^(2)-!(2)-!(2)-^2-^(2)-!(2)-!(2)-^2-!2-^(0)-!(0)-|
||o-^3-^(3)-!(3)-!(3)-^3-^(3)-!(3)-!(3)-^3-!3-^(3)-!(3)-|
||--^2-^(2)-!(2)-!(2)-^2-^(2)-!(2)-!(2)-^2-!2-^(2)-!(0)-|
||--^0-^(0)-!(0)-!(0)-^0-^(0)-!(0)-!(0)-^0-!0-^(0)-!(0)-|
||o-----------------------------------------------------|
||------------------------------------------------------|


   E   S    E    S   E   S    E    S   S  S   S    S
|-^0-^(0)-!(0)-!(0)-^0-^(0)-!(0)-!(0)-^0-!0-^(0)-!(0)-|
|-^2-^(2)-!(2)-!(2)-^2-^(2)-!(2)-!(2)-^2-!2-^(0)-!(0)-|
|-^2-^(2)-!(2)-!(2)-^2-^(2)-!(2)-!(2)-^2-!2-^(2)-!(2)-|
|-^2-^(2)-!(2)-!(2)-^2-^(2)-!(2)-!(2)-^2-!2-^(2)-!(4)-|
|-^0-^(0)-!(0)-!(0)-^0-^(0)-!(0)-!(0)-^0-!0-^(0)-!(0)-|
|-^0-^(0)-!(0)-!(0)-^0-^(0)-!(0)-!(0)-^0-!0-^(0)-!(0)-|


   E   S    E    S   E   S    E    S   S  S   S    S
|-^2-^(2)-!(2)-!(2)-^2-^(0)-!(0)-!(0)-^2-!2-^(0)-!(0)-|
|-^3-^(3)-!(3)-!(3)-^3-^(3)-!(3)-!(3)-^3-!3-^(3)-!(3)-|
|-^4-^(4)-!(4)-!(4)-^4-^(4)-!(4)-!(4)-^2-!2-^(2)-!(0)-|
|-^4-^(4)-!(4)-!(4)-^4-^(4)-!(4)-!(4)-^0-!0-^(0)-!(0)-|
|-----------------------------------------------------|
|-----------------------------------------------------|


   E   S    E    S   E   S    E    S   S  S   S    S   4x
|-^3-^(3)-!(3)-!(3)-^3-^(3)-!(3)-!(3)-^3-!3-^(3)-!(0)--||
|-^3-^(3)-!(3)-!(3)-^3-^(3)-!(3)-!(3)-^3-!3-^(3)-!(3)-o||
|-^0-^(0)-!(0)-!(0)-^0-^(0)-!(0)-!(0)-^0-!0-^(0)-!(0)--||
|-^0-^(0)-!(0)-!(0)-^0-^(0)-!(0)-!(0)-^0-!0-^(0)-!(0)--||
|-^2-^(2)-!(2)-!(2)-^2-^(2)-!(2)-!(2)-^2-!2-^(2)-!(2)-o||
|-^3-^(3)-!(3)-!(3)-^3-^(3)-!(3)-!(3)-^3-!3-^(3)-!(3)--||


   E   S    E    S   E   S    E    S   S  S   S    S
|-^2-^(2)-!(2)-!(2)-^2-^(2)-!(2)-!(2)-^2-!2-^(0)-!(0)-|
|-^3-^(3)-!(3)-!(3)-^3-^(3)-!(3)-!(3)-^3-!3-^(3)-!(3)-|
|-^2-^(2)-!(2)-!(2)-^2-^(2)-!(2)-!(2)-^2-!2-^(2)-!(0)-|
|-^0-^(0)-!(0)-!(0)-^0-^(0)-!(0)-!(0)-^0-!0-^(0)-!(0)-|
|-----------------------------------------------------|
|-----------------------------------------------------|
|
| Gtr III
|  W
|-^5--------------------------------------------------|
|-----------------------------------------------------|
|-^7--------------------------------------------------|
|-^7--------------------------------------------------|
|-^5--------------------------------------------------|
|-----------------------------------------------------|


   E   S    E    S   E   S    E    S   S  S   S    S
|-^0-^(0)-!(0)-!(0)-^0-^(0)-!(0)-!(0)-^0-!0-^(0)-!(0)-|
|-^2-^(2)-!(2)-!(2)-^2-^(2)-!(2)-!(2)-^2-!2-^(0)-!(0)-|
|-^2-^(2)-!(2)-!(2)-^2-^(2)-!(2)-!(2)-^2-!2-^(2)-!(2)-|
|-^2-^(2)-!(2)-!(2)-^2-^(2)-!(2)-!(2)-^2-!2-^(2)-!(4)-|
|-^0-^(0)-!(0)-!(0)-^0-^(0)-!(0)-!(0)-^0-!0-^(0)-!(0)-|
|-^0-^(0)-!(0)-!(0)-^0-^(0)-!(0)-!(0)-^0-!0-^(0)-!(0)-|
|
|  W
|-----------------------------------------------------|
|-^5--------------------------------------------------|
|-^6--------------------------------------------------|
|-^7--------------------------------------------------|
|-^7--------------------------------------------------|
|-^5--------------------------------------------------|


   E   S    E    S   E   S    E    S   S  S   S    S
|-^2-^(2)-!(2)-!(2)-^2-^(0)-!(0)-!(0)-^2-!2-^(0)-!(0)-|
|-^3-^(3)-!(3)-!(3)-^3-^(3)-!(3)-!(3)-^3-!3-^(3)-!(3)-|
|-^4-^(4)-!(4)-!(4)-^4-^(4)-!(4)-!(4)-^2-!2-^(2)-!(0)-|
|-^4-^(4)-!(4)-!(4)-^4-^(4)-!(4)-!(4)-^0-!0-^(0)-!(0)-|
|-----------------------------------------------------|
|-----------------------------------------------------|
|
|  W
|-----------------------------------------------------|
|-----------------------------------------------------|
|-^4--------------------------------------------------|
|-^4--------------------------------------------------|
|-^2--------------------------------------------------|
|-----------------------------------------------------|


   E   S    E    S   E   S    E    S   S  S   S    S
|-^3-^(3)-!(3)-!(3)-^3-^(3)-!(3)-!(3)-^3-!3-^(3)-!(0)-|
|-^3-^(3)-!(3)-!(3)-^3-^(3)-!(3)-!(3)-^3-!3-^(3)-!(3)-|
|-^0-^(0)-!(0)-!(0)-^0-^(0)-!(0)-!(0)-^0-!0-^(0)-!(0)-|
|-^0-^(0)-!(0)-!(0)-^0-^(0)-!(0)-!(0)-^0-!0-^(0)-!(0)-|
|-^2-^(2)-!(2)-!(2)-^2-^(2)-!(2)-!(2)-^2-!2-^(2)-!(2)-|
|-^3-^(3)-!(3)-!(3)-^3-^(3)-!(3)-!(3)-^3-!3-^(3)-!(3)-|
|
|  W
|-----------------------------------------------------|
|-----------------------------------------------------|
|-^4--------------------------------------------------|
|-^5--------------------------------------------------|
|-^5--------------------------------------------------|
|-^3--------------------------------------------------|


   E   S    E    S   E   S    E    S   S   S    S    S
|-^2-^(2)-!(2)-!(2)-^2-^(2)-!(2)-!(2)-^2--!2--^(0)-!(0)-|
|-^3-^(3)-!(3)-!(3)-^3-^(3)-!(3)-!(3)-^3--!3--^(3)-!(3)-|
|-^2-^(2)-!(2)-!(2)-^2-^(2)-!(2)-!(2)-^2--!2--^(2)-!(0)-|
|-^0-^(0)-!(0)-!(0)-^0-^(0)-!(0)-!(0)-^0--!0--^(0)-!(0)-|
|-------------------------------------------------------|
|-------------------------------------------------------|
|
|  H                    +Q             S   S    E
|-^5--------------------(5)-----------------------------|
|-------------------------------------10---7------------|
|-^7--------------------(7)-----------(7)-(7)---9-------|
|-^7--------------------(7)-----------(7)-(7)--(7)------|
|-^5--------------------(5)-----------(5)-(5)--(5)------|
|-------------------------------------------------------|


   E   S    E    S   E   S    E    S   S   S    S    S
|-^0-^(0)-!(0)-!(0)-^0-^(0)-!(0)-!(0)-^0--!0--^(0)-!(0)-|
|-^2-^(2)-!(2)-!(2)-^2-^(2)-!(2)-!(2)-^2--!2--^(0)-!(0)-|
|-^2-^(2)-!(2)-!(2)-^2-^(2)-!(2)-!(2)-^2--!2--^(2)-!(2)-|
|-^2-^(2)-!(2)-!(2)-^2-^(2)-!(2)-!(2)-^2--!2--^(2)-!(4)-|
|-^0-^(0)-!(0)-!(0)-^0-^(0)-!(0)-!(0)-^0--!0--^(0)-!(0)-|
|-^0-^(0)-!(0)-!(0)-^0-^(0)-!(0)-!(0)-^0--!0--^(0)-!(0)-|
|
|  H                    +Q             S   S    E
|-------------------------------------------------------|
|-^5--------------------(5)------------7--10----7-------|
|-^6--------------------(6)-----------------------------|
|-^7--------------------(7)-----------(7)-(7)--(7)------|
|-^7--------------------(7)-----------(7)-(7)--(7)------|
|-^5--------------------(5)-----------------------------|


   E   S    E    S   E   S    E    S   S  S   S    S
|-^2-^(2)-!(2)-!(2)-^2-^(0)-!(0)-!(0)-^2-!2-^(0)-!(0)-|
|-^3-^(3)-!(3)-!(3)-^3-^(3)-!(3)-!(3)-^3-!3-^(3)-!(3)-|
|-^4-^(4)-!(4)-!(4)-^4-^(4)-!(4)-!(4)-^2-!2-^(2)-!(0)-|
|-^4-^(4)-!(4)-!(4)-^4-^(4)-!(4)-!(4)-^0-!0-^(0)-!(0)-|
|-----------------------------------------------------|
|-----------------------------------------------------|
|
|  W
|-----------------------------------------------------|
|-----------------------------------------------------|
|-^4--------------------------------------------------|
|-^4--------------------------------------------------|
|-^2--------------------------------------------------|
|-----------------------------------------------------|


   E   S    E    S   E   S    E    S   S  S   S    S
|-^3-^(3)-!(3)-!(3)-^3-^(3)-!(3)-!(3)-^3-!3-^(3)-!(0)-|
|-^3-^(3)-!(3)-!(3)-^3-^(3)-!(3)-!(3)-^3-!3-^(3)-!(3)-|
|-^0-^(0)-!(0)-!(0)-^0-^(0)-!(0)-!(0)-^0-!0-^(0)-!(0)-|
|-^0-^(0)-!(0)-!(0)-^0-^(0)-!(0)-!(0)-^0-!0-^(0)-!(0)-|
|-^2-^(2)-!(2)-!(2)-^2-^(2)-!(2)-!(2)-^2-!2-^(2)-!(2)-|
|-^3-^(3)-!(3)-!(3)-^3-^(3)-!(3)-!(3)-^3-!3-^(3)-!(3)-|
|
|  W
|-----------------------------------------------------|
|-^3--------------------------------------------------|
|-^4--------------------------------------------------|
|-^5--------------------------------------------------|
|-^5--------------------------------------------------|
|-^3--------------------------------------------------|


   E    S    E    S   E   S    E    S   S  S   S    S
|-^2--^(2)-!(2)-!(2)-^2-^(2)-!(2)-!(2)-^2-!2-^(0)-!(0)-|
|-^3--^(3)-!(3)-!(3)-^3-^(3)-!(3)-!(3)-^3-!3-^(3)-!(3)-|
|-^2--^(2)-!(2)-!(2)-^2-^(2)-!(2)-!(2)-^2-!2-^(2)-!(0)-|
|-^0--^(0)-!(0)-!(0)-^0-^(0)-!(0)-!(0)-^0-!0-^(0)-!(0)-|
|------------------------------------------------------|
|------------------------------------------------------|
|
|  E.        E.       E  +H
|------------------------------------------------------|
|--7---------7--------7--(7)---------------------------|
|------------------------------------------------------|
|------------------------------------------------------|
|------------------------------------------------------|
|------------------------------------------------------|


   E    S    E    S   E   S    E    S   S  S   S    S
|-^0--^(0)-!(0)-!(0)-^0-^(0)-!(0)-!(0)-^0-!0-^(0)-!(0)-|
|-^2--^(2)-!(2)-!(2)-^2-^(2)-!(2)-!(2)-^2-!2-^(0)-!(0)-|
|-^2--^(2)-!(2)-!(2)-^2-^(2)-!(2)-!(2)-^2-!2-^(2)-!(2)-|
|-^2--^(2)-!(2)-!(2)-^2-^(2)-!(2)-!(2)-^2-!2-^(2)-!(4)-|
|-^0--^(0)-!(0)-!(0)-^0-^(0)-!(0)-!(0)-^0-!0-^(0)-!(0)-|
|-^0--^(0)-!(0)-!(0)-^0-^(0)-!(0)-!(0)-^0-!0-^(0)-!(0)-|
|
|  E.        E.       E  +H
|------------------------------------------------------|
|--5---------5--------5--(5)---------------------------|
|------------------------------------------------------|
|------------------------------------------------------|
|------------------------------------------------------|
|------------------------------------------------------|


   E    S    E    S   E   S    E    S   S  S   S    S
|-^2--^(2)-!(2)-!(2)-^2-^(0)-!(0)-!(0)-^2-!2-^(0)-!(0)-|
|-^3--^(3)-!(3)-!(3)-^3-^(3)-!(3)-!(3)-^3-!3-^(3)-!(3)-|
|-^4--^(4)-!(4)-!(4)-^4-^(4)-!(4)-!(4)-^2-!2-^(2)-!(0)-|
|-^4--^(4)-!(4)-!(4)-^4-^(4)-!(4)-!(4)-^0-!0-^(0)-!(0)-|
|------------------------------------------------------|
|------------------------------------------------------|
|
|  E.        E.       E  +H
|--2---------2--------2--(2)---------------------------|
|------------------------------------------------------|
|------------------------------------------------------|
|------------------------------------------------------|
|------------------------------------------------------|
|------------------------------------------------------|


   E    S    E    S   E   S    E    S   S  S   S    S
|-^3--^(3)-!(3)-!(3)-^3-^(3)-!(3)-!(3)-^3-!3-^(3)-!(0)-|
|-^3--^(3)-!(3)-!(3)-^3-^(3)-!(3)-!(3)-^3-!3-^(3)-!(3)-|
|-^0--^(0)-!(0)-!(0)-^0-^(0)-!(0)-!(0)-^0-!0-^(0)-!(0)-|
|-^0--^(0)-!(0)-!(0)-^0-^(0)-!(0)-!(0)-^0-!0-^(0)-!(0)-|
|-^2--^(2)-!(2)-!(2)-^2-^(2)-!(2)-!(2)-^2-!2-^(2)-!(2)-|
|-^3--^(3)-!(3)-!(3)-^3-^(3)-!(3)-!(3)-^3-!3-^(3)-!(3)-|
|
|  E.        E.       E  +H
|--0---------2-----------------------------------------|
|---------------------3--(3)---------------------------|
|------------------------------------------------------|
|------------------------------------------------------|
|------------------------------------------------------|
|------------------------------------------------------|


  Gtr II
  E S E S S S E S E      S  S S    E S E      S  S S E S E S S S
|-------------------------------|--------------------------------|
|-------------------------------|--------------------------------|
|-4-4-4-4-4-4-------------------|--7-7-7------7--7-7-------------|
|-4-4-4-4-4-4-5-5-5------5--5-5-|--7-7-7------7--7-7-7-7-7-7-7-7-|
|-2-2-2-2-2-2-5-5-5------5--5-5-|--5-5-5------5--5-5-7-7-7-7-7-7-|
|-------------3-3-3------3--3-3-|--------------------5-5-5-5-5-5-|
|
| H           Q      S   S  E      Q      S   S  E   H
|-2-----------3------3----------|--0-----------------0-----------|
|-3----------------------3------|-10------5----------5-----------|
|-4-----------4-----(4)-(4)-4---|--7-----(7)--6------6-----------|
|-4-----------5------5---5--5---|--7-----(7)-(7)-7---7-----------|
|-2-----------5------5---5--5---|--------------------7-----------|
|-------------3------3---3--3---|--------------------------------|


  E S E S S S E S E      S  S S    E S E      S  S S E S E S S S
|-------------------------------|-----------------------------------|
|-------------------------------|-----------------------------------|
|-4-4-4-4-4-4-------------------|--7-7-7------7--7-7----------------|
|-4-4-4-4-4-4-5-5-5------5--5-5-|--7-7-7------7--7-7-7-7-7-7-7-7----|
|-2-2-2-2-2-2-5-5-5------5--5-5-|--5-5-5------5--5-5-7-7-7-7-7-7----|
|-------------3-3-3------3--3-3-|--------------------5-5-5-5-5-5----|
|
| H           Q      S   S  E      Q      S   S  E   H
|-2-----------3------3----------|--0-----------------0--------------|
|-3----------------------3------|-10------5----------5--------------|
|-4-----------4-----(4)-(4)-4---|--7-----(7)--6------6--------------|
|-4-----------5------5---5--5---|--7-----(7)-(7)-7---7--------------|
|-2-----------5------5---5--5---|--------------------7--------------|
|-------------3------3---3--3---|-----------------------------------|


   S S S S S S S S  S S S S S S S S
|-----------------------------------|
|-----------------------------------|
|--4-4-4-4-4-4-4-4------------------|
|--4-4-4-4-4-4-4-4--5-5-5-5-5-5-5-5-|
|--2-2-2-2-2-2-2-2--5-5-5-5-5-5-5-5-|
|-------------------3-3-3-3-3-3-3-3-|
|
|  H                H
|-14---------------17---------------|
|-----------------------------------|
|-----------------------------------|
|-----------------------------------|
|-----------------------------------|
|-----------------------------------|


   S S S S S S S S  S S S S S S S S    S S S S S S S S  H
|-----------------------------------|------------------------|
|-----------------------------------|------------------------|
|--7-7-7-7-7-7-7-7------------------|--4-4-4-4-4-4-4-4-------|
|--7-7-7-7-7-7-7-7--7-7-7-7-7-7-7-7-|--4-4-4-4-4-4-4-4--5----|
|--5-5-5-5-5-5-5-5--7-7-7-7-7-7-7-7-|--2-2-2-2-2-2-2-2--5----|
|-------------------5-5-5-5-5-5-5-5-|-------------------3----|
|
|  H                H                  H                H
|-21---------------19---------------|-14---------------17----|
|-----------------------------------|------------------------|
|-----------------------------------|------------------------|
|-----------------------------------|------------------------|
|-----------------------------------|------------------------|
|-----------------------------------|------------------------|


  Gtr I
    E    S    E    S   E   S    E    S   S  S   S    S
|-^-2--^(2)-!(2)-!(2)-^2-^(2)-!(2)-!(2)-^2-!2-^(0)-!(0)-|
|-^-3--^(3)-!(3)-!(3)-^3-^(3)-!(3)-!(3)-^3-!3-^(3)-!(3)-|
|-^-2--^(2)-!(2)-!(2)-^2-^(2)-!(2)-!(2)-^2-!2-^(2)-!(0)-|
|-^-0--^(0)-!(0)-!(0)-^0-^(0)-!(0)-!(0)-^0-!0-^(0)-!(0)-|
|-------------------------------------------------------|
|-------------------------------------------------------|
|
|  +W
|-(17)--------------------------------------------------|
|-------------------------------------------------------|
|-------------------------------------------------------|
|-------------------------------------------------------|
|-------------------------------------------------------|
|-------------------------------------------------------|


   E   S    E    S   E   S    E    S   S  S   S    S
|-^0-^(0)-!(0)-!(0)-^0-^(0)-!(0)-!(0)-^0-!0-^(0)-!(0)-|
|-^2-^(2)-!(2)-!(2)-^2-^(2)-!(2)-!(2)-^2-!2-^(0)-!(0)-|
|-^2-^(2)-!(2)-!(2)-^2-^(2)-!(2)-!(2)-^2-!2-^(2)-!(2)-|
|-^2-^(2)-!(2)-!(2)-^2-^(2)-!(2)-!(2)-^2-!2-^(2)-!(4)-|
|-^0-^(0)-!(0)-!(0)-^0-^(0)-!(0)-!(0)-^0-!0-^(0)-!(0)-|
|-^0-^(0)-!(0)-!(0)-^0-^(0)-!(0)-!(0)-^0-!0-^(0)-!(0)-|
|
|  W
|-----------------------------------------------------|
|-----------------------------------------------------|
|-----------------------------------------------------|
|-----------------------------------------------------|
|-----------------------------------------------------|
|-----------------------------------------------------|


   E   S    E    S   E   S    E    S   S  S   S    S
|-^2-^(2)-!(2)-!(2)-^2-^(0)-!(0)-!(0)-^2-!2-^(0)-!(0)-|
|-^3-^(3)-!(3)-!(3)-^3-^(3)-!(3)-!(3)-^3-!3-^(3)-!(3)-|
|-^4-^(4)-!(4)-!(4)-^4-^(4)-!(4)-!(4)-^2-!2-^(2)-!(0)-|
|-^4-^(4)-!(4)-!(4)-^4-^(4)-!(4)-!(4)-^0-!0-^(0)-!(0)-|
|-----------------------------------------------------|
|-----------------------------------------------------|


   E   S    E    S   E   S    E    S   S  S   S    S
|-^3-^(3)-!(3)-!(3)-^3-^(3)-!(3)-!(3)-^3-!3-^(3)-!(0)-|
|-^3-^(3)-!(3)-!(3)-^3-^(3)-!(3)-!(3)-^3-!3-^(3)-!(3)-|
|-^0-^(0)-!(0)-!(0)-^0-^(0)-!(0)-!(0)-^0-!0-^(0)-!(0)-|
|-^0-^(0)-!(0)-!(0)-^0-^(0)-!(0)-!(0)-^0-!0-^(0)-!(0)-|
|-^2-^(2)-!(2)-!(2)-^2-^(2)-!(2)-!(2)-^2-!2-^(2)-!(2)-|
|-^3-^(3)-!(3)-!(3)-^3-^(3)-!(3)-!(3)-^3-!3-^(3)-!(3)-|


   E   S    E    S   E   S    E    S   S  S   S    S
|-^2-^(2)-!(2)-!(2)-^2-^(2)-!(2)-!(2)-^2-!2-^(0)-!(0)-|
|-^3-^(3)-!(3)-!(3)-^3-^(3)-!(3)-!(3)-^3-!3-^(3)-!(3)-|
|-^2-^(2)-!(2)-!(2)-^2-^(2)-!(2)-!(2)-^2-!2-^(2)-!(0)-|
|-^0-^(0)-!(0)-!(0)-^0-^(0)-!(0)-!(0)-^0-!0-^(0)-!(0)-|
|-----------------------------------------------------|
|-----------------------------------------------------|


   E   S    E    S   E   S    E    S   S  S   S    S
|-^0-^(0)-!(0)-!(0)-^0-^(0)-!(0)-!(0)-^0-!0-^(0)-!(0)-|
|-^2-^(2)-!(2)-!(2)-^2-^(2)-!(2)-!(2)-^2-!2-^(0)-!(0)-|
|-^2-^(2)-!(2)-!(2)-^2-^(2)-!(2)-!(2)-^2-!2-^(2)-!(2)-|
|-^2-^(2)-!(2)-!(2)-^2-^(2)-!(2)-!(2)-^2-!2-^(2)-!(4)-|
|-^0-^(0)-!(0)-!(0)-^0-^(0)-!(0)-!(0)-^0-!0-^(0)-!(0)-|
|-^0-^(0)-!(0)-!(0)-^0-^(0)-!(0)-!(0)-^0-!0-^(0)-!(0)-|


   E   S    E    S   E   S    E    S   S  S   S    S
|-^2-^(2)-!(2)-!(2)-^2-^(0)-!(0)-!(0)-^2-!2-^(0)-!(0)-|
|-^3-^(3)-!(3)-!(3)-^3-^(3)-!(3)-!(3)-^3-!3-^(3)-!(3)-|
|-^4-^(4)-!(4)-!(4)-^4-^(4)-!(4)-!(4)-^2-!2-^(2)-!(0)-|
|-^4-^(4)-!(4)-!(4)-^4-^(4)-!(4)-!(4)-^0-!0-^(0)-!(0)-|
|-----------------------------------------------------|
|-----------------------------------------------------|
|
| Gtr III
|  W
|-----------------------------------------------------|
|-----------------------------------------------------|
|-----------------------------------------------------|
|-----------------------------------------------------|
|-----------------------------------------------------|
|-----------------------------------------------------|


   E        S    E       S    E         S    E         S   S   S    S    S
|-^3------^(3)-!(3)----!(3)-^-3-------^(3)-!(3)------!(3)-^3-!-3--^(3)-!(0)-|
|-^3------^(3)-!(3)----!(3)-^-3-------^(3)-!(3)------!(3)-^3-!-3--^(3)-!(3)-|
|-^0------^(0)-!(0)----!(0)-^-0-------^(0)-!(0)------!(0)-^0-!-0--^(0)-!(0)-|
|-^0------^(0)-!(0)----!(0)-^-0-------^(0)-!(0)------!(0)-^0-!-0--^(0)-!(0)-|
|-^2------^(2)-!(2)----!(2)-^-2-------^(2)-!(2)------!(2)-^2-!-2--^(2)-!(2)-|
|-^3------^(3)-!(3)----!(3)-^-3-------^(3)-!(3)------!(3)-^3-!-3--^(3)-!(3)-|
|
|  S   S    S    S   S   S    S    S    S    S    S    S   S   S    S    S
|---------------------------------------------------------------------------|
|----------20----------------20------------------20----------------20-------|
|-----19--(19)--19------19--(19)--19--------19--(19)--19------19--(19)--19--|
|-17-(17)-(17)-(17)-17-(17)-(17)-(17)--17--(17)-(17)-(17)-17-(17)-(17)-(17)-|
|---------------------------------------------------------------------------|
|---------------------------------------------------------------------------|


  Gtr II
  E S E S S S E S E      S  S S    E S E      S  S S E S E S S S
|-------------------------------|--------------------------------|
|-------------------------------|--------------------------------|
|-4-4-4-4-4-4-------------------|--7-7-7------7--7-7-------------|
|-4-4-4-4-4-4-5-5-5------5--5-5-|--7-7-7------7--7-7-7-7-7-7-7-7-|
|-2-2-2-2-2-2-5-5-5------5--5-5-|--5-5-5------5--5-5-7-7-7-7-7-7-|
|-------------3-3-3------3--3-3-|--------------------5-5-5-5-5-5-|
|
| H           Q      S   S  E      Q      S   S  E   H
|-2-----------3------3----------|--0-----------------0-----------|
|-3----------------------3------|-10------5----------5-----------|
|-4-----------4-----(4)-(4)-4---|--7-----(7)--6------6-----------|
|-4-----------5------5---5--5---|--7-----(7)-(7)-7---7-----------|
|-2-----------5------5---5--5---|--------------------7-----------|
|-------------3------3---3--3---|--------------------------------|


  E S E S S S E S E      S  S S    E S E      S  S S E S E S S S
|-------------------------------|-----------------------------------|
|-------------------------------|-----------------------------------|
|-4-4-4-4-4-4-------------------|--7-7-7------7--7-7----------------|
|-4-4-4-4-4-4-5-5-5------5--5-5-|--7-7-7------7--7-7-7-7-7-7-7-7----|
|-2-2-2-2-2-2-5-5-5------5--5-5-|--5-5-5------5--5-5-7-7-7-7-7-7----|
|-------------3-3-3------3--3-3-|--------------------5-5-5-5-5-5----|
|
| H           Q      S   S  E      Q      S   S  E   H
|-2-----------3------3----------|--0-----------------0--------------|
|-3----------------------3------|-10------5----------5--------------|
|-4-----------4-----(4)-(4)-4---|--7-----(7)--6------6--------------|
|-4-----------5------5---5--5---|--7-----(7)-(7)-7---7--------------|
|-2-----------5------5---5--5---|--------------------7--------------|
|-------------3------3---3--3---|-----------------------------------|


  S S S S S S S S S S S S S S S S
|---------------------------------|
|---------------------------------|
|-4-4-4-4-4-4-4-4-----------------|
|-4-4-4-4-4-4-4-4-5-5-5-5-5-5-5-5-|
|-2-2-2-2-2-2-2-2-5-5-5-5-5-5-5-5-|
|-----------------3-3-3-3-3-3-3-3-|
|
| H               H
|-2---------------5---------------|
|---------------------------------|
|---------------------------------|
|---------------------------------|
|---------------------------------|
|---------------------------------|


  S S S S S S S S S S S S S S S S   S S S S S S S S H
|---------------------------------|--------------------------------|
|---------------------------------|--------------------------------|
|-7-7-7-7-7-7-7-7-----------------|-4-4-4-4-4-4-4-4----------------|
|-7-7-7-7-7-7-7-7-7-7-7-7-7-7-7-7-|-4-4-4-4-4-4-4-4-5--------------|
|-5-5-5-5-5-5-5-5-7-7-7-7-7-7-7-7-|-2-2-2-2-2-2-2-2-5--------------|
|-----------------5-5-5-5-5-5-5-5-|-----------------3--------------|
|
| H               H                 H               Q   S   S   E
|-9---------------7---------------|-2---------------5---3----------|
|---------------------------------|-------------------------3------|
|---------------------------------|-----------------4--(4)-(4)--4--|
|---------------------------------|-----------------5--(5)-(5)--5--|
|---------------------------------|-----------------5--(5)-(5)-(5)-|
|---------------------------------|--------------------------------|


   Q               H.                     Q  H.
|---------------------------------------|------------|
|---------------------------------------|------------|
|---------------------------------------|------------|
|--7---------------7--------------------|-5--5-------|
|--7---------------7--------------------|-5--5-------|
|--5---------------5--------------------|-3--3-------|
|
|  S   S   S   S   S   S   S   E. E E E   Q  H.
|---------------------------------------|------------|
|--5--[5]-[5]-[5]-[5]-[5]-[5]-[5]-5-7-5-|-3--0-------|
|-(4)-----------------------------------|------------|
|-(5)-----------------------------------|------------|
|---------------------------------------|------------|
|---------------------------------------|------------|


  Q              H.                     Q..       H     +S
|-------------------------------------|---------------------|
|-------------------------------------|---------------------|
|-------------------------------------|-----------7-----(7)-|
|-7--------------7--------------------|-5---------7-----(7)-|
|-7--------------7--------------------|-5---------5-----(5)-|
|-5--------------5--------------------|-3-------------------|
|
| S  S   S   S   S   S   S   E. E E E   Q     E.  H     +S
|-------------------------------------|---------------------|
|-5-[5]-[5]-[5]-[5]-[5]-[5]-[5]-5-7-5-|-3----12--10----(10)-|
|-------------------------------------|---------------------|
|-------------------------------------|---------------------|
|-------------------------------------|---------------------|
|-------------------------------------|---------------------|


  Gtr I
    E    S    E    S   E   S    E    S   S  S   S    S
|-^-2--^(2)-!(2)-!(2)-^2-^(2)-!(2)-!(2)-^2-!2-^(0)-!(0)-|
|-^-3--^(3)-!(3)-!(3)-^3-^(3)-!(3)-!(3)-^3-!3-^(3)-!(3)-|
|-^-2--^(2)-!(2)-!(2)-^2-^(2)-!(2)-!(2)-^2-!2-^(2)-!(0)-|
|-^-0--^(0)-!(0)-!(0)-^0-^(0)-!(0)-!(0)-^0-!0-^(0)-!(0)-|
|-------------------------------------------------------|
|-------------------------------------------------------|
|
|  +H                      H
|-------------------------------------------------------|
|-(10)--------------------------------------------------|
|-------------------------------------------------------|
|-------------------------------------------------------|
|-------------------------------------------------------|
|-------------------------------------------------------|


   E   S    E    S   E   S    E    S   S  S   S    S
|-^0-^(0)-!(0)-!(0)-^0-^(0)-!(0)-!(0)-^0-!0-^(0)-!(0)-|
|-^2-^(2)-!(2)-!(2)-^2-^(2)-!(2)-!(2)-^2-!2-^(0)-!(0)-|
|-^2-^(2)-!(2)-!(2)-^2-^(2)-!(2)-!(2)-^2-!2-^(2)-!(2)-|
|-^2-^(2)-!(2)-!(2)-^2-^(2)-!(2)-!(2)-^2-!2-^(2)-!(4)-|
|-^0-^(0)-!(0)-!(0)-^0-^(0)-!(0)-!(0)-^0-!0-^(0)-!(0)-|
|-^0-^(0)-!(0)-!(0)-^0-^(0)-!(0)-!(0)-^0-!0-^(0)-!(0)-|
|
|  W
|-----------------------------------------------------|
|-----------------------------------------------------|
|-----------------------------------------------------|
|-----------------------------------------------------|
|-----------------------------------------------------|
|-----------------------------------------------------|


   E   S    E    S   E   S    E    S   S  S   S    S
|-^2-^(2)-!(2)-!(2)-^2-^(0)-!(0)-!(0)-^2-!2-^(0)-!(0)-|
|-^3-^(3)-!(3)-!(3)-^3-^(3)-!(3)-!(3)-^3-!3-^(3)-!(3)-|
|-^4-^(4)-!(4)-!(4)-^4-^(4)-!(4)-!(4)-^2-!2-^(2)-!(0)-|
|-^4-^(4)-!(4)-!(4)-^4-^(4)-!(4)-!(4)-^0-!0-^(0)-!(0)-|
|-----------------------------------------------------|
|-----------------------------------------------------|


   E   S    E    S   E   S    E    S   S  S   S    S
|-^3-^(3)-!(3)-!(3)-^3-^(3)-!(3)-!(3)-^3-!3-^(3)-!(0)-|
|-^3-^(3)-!(3)-!(3)-^3-^(3)-!(3)-!(3)-^3-!3-^(3)-!(3)-|
|-^0-^(0)-!(0)-!(0)-^0-^(0)-!(0)-!(0)-^0-!0-^(0)-!(0)-|
|-^0-^(0)-!(0)-!(0)-^0-^(0)-!(0)-!(0)-^0-!0-^(0)-!(0)-|
|-^2-^(2)-!(2)-!(2)-^2-^(2)-!(2)-!(2)-^2-!2-^(2)-!(2)-|
|-^3-^(3)-!(3)-!(3)-^3-^(3)-!(3)-!(3)-^3-!3-^(3)-!(3)-|


   E     S    E      S   E     S    E      S   S  S   S    S
|-^2---^(2)-!(2)---!(2)-^2---^(2)-!(2)---!(2)-^2-!2-^(0)-!(0)-|
|-^3---^(3)-!(3)---!(3)-^3---^(3)-!(3)---!(3)-^3-!3-^(3)-!(3)-|
|-^2---^(2)-!(2)---!(2)-^2---^(2)-!(2)---!(2)-^2-!2-^(2)-!(0)-|
|-^0---^(0)-!(0)---!(0)-^0---^(0)-!(0)---!(0)-^0-!0-^(0)-!(0)-|
|-------------------------------------------------------------|
|-------------------------------------------------------------|
|
|  PM----------------------------------------------------------
|  S S   S    S  S   S   S S   S    S  S   S   S  S   S    S
|-------------------------------------------------------------|
|-------------------------------------------------------------|
|-------------------------------------------------------------|
|--7-7---7----7--7---7---7-7---7----7--7---7---7--7---7----7--|
|--5-5---5----5--5---5---5-5---5----5--5---5---5--5---5----5--|
|-------------------------------------------------------------|


   E     S    E      S   E     S    E      S   S  S   S    S
|-^0---^(0)-!(0)---!(0)-^0---^(0)-!(0)---!(0)-^0-!0-^(0)-!(0)-|
|-^2---^(2)-!(2)---!(2)-^2---^(2)-!(2)---!(2)-^2-!2-^(0)-!(0)-|
|-^2---^(2)-!(2)---!(2)-^2---^(2)-!(2)---!(2)-^2-!2-^(2)-!(2)-|
|-^2---^(2)-!(2)---!(2)-^2---^(2)-!(2)---!(2)-^2-!2-^(2)-!(4)-|
|-^0---^(0)-!(0)---!(0)-^0---^(0)-!(0)---!(0)-^0-!0-^(0)-!(0)-|
|-^0---^(0)-!(0)---!(0)-^0---^(0)-!(0)---!(0)-^0-!0-^(0)-!(0)-|
|
|--------------------------------------------------------|
|  S S   S    S  S   S   S S   S    S  S   S   S  S   S    S
|-------------------------------------------------------------|
|-------------------------------------------------------------|
|-------------------------------------------------------------|
|-------------------------------------------------------------|
|--7-7---7----7--7---7---7-7---7----7--7---7---7--7---7----7--|
|--5-5---5----5--5---5---5-5---5----5--5---5---5--5---5----5--|


   E     S    E      S   E     S    E      S   S  S   S    S
|-^2---^(2)-!(2)---!(2)-^2---^(0)-!(0)---!(0)-^2-!2-^(0)-!(0)-|
|-^3---^(3)-!(3)---!(3)-^3---^(3)-!(3)---!(3)-^3-!3-^(3)-!(3)-|
|-^4---^(4)-!(4)---!(4)-^4---^(4)-!(4)---!(4)-^2-!2-^(2)-!(0)-|
|-^4---^(4)-!(4)---!(4)-^4---^(4)-!(4)---!(4)-^0-!0-^(0)-!(0)-|
|-------------------------------------------------------------|
|-------------------------------------------------------------|
|
| Gtr II
|  W
|-------------------------------------------------------------|
|-------------------------------------------------------------|
|-------------------------------------------------------------|
|-------------------------------------------------------------|
|-------------------------------------------------------------|
|-------------------------------------------------------------|
|
| Gtr III
|  PM----------------------------------------------------------
|  S S   S    S  S   S   S S   S    S  S   S   S  S   S    S
|-------------------------------------------------------------|
|-------------------------------------------------------------|
|-------------------------------------------------------------|
|--4-4---4----4--4---4---4-4---4----4--4---4---4--4---4----4--|
|--2-2---2----2--2---2---2-2---2----2--2---2---2--2---2----2--|
|-------------------------------------------------------------|


   E        S    E       S    E         S    E         S   S   S    S    S
|-^3------^(3)-!(3)----!(3)-^-3-------^(3)-!(3)------!(3)-^3-!-3--^(3)-!(0)-|
|-^3------^(3)-!(3)----!(3)-^-3-------^(3)-!(3)------!(3)-^3-!-3--^(3)-!(3)-|
|-^0------^(0)-!(0)----!(0)-^-0-------^(0)-!(0)------!(0)-^0-!-0--^(0)-!(0)-|
|-^0------^(0)-!(0)----!(0)-^-0-------^(0)-!(0)------!(0)-^0-!-0--^(0)-!(0)-|
|-^2------^(2)-!(2)----!(2)-^-2-------^(2)-!(2)------!(2)-^2-!-2--^(2)-!(2)-|
|-^3------^(3)-!(3)----!(3)-^-3-------^(3)-!(3)------!(3)-^3-!-3--^(3)-!(3)-|
|
|  S   S    S    S   S   S    S    S    S    S    S    S   S   S    S    S
|---------------------------------------------------------------------------|
|----------20----------------20------------------20----------------20-------|
|-----19--(19)--19------19--(19)--19--------19--(19)--19------19--(19)--19--|
|-17-(17)-(17)-(17)-17-(17)-(17)-(17)--17--(17)-(17)-(17)-17-(17)-(17)-(17)-|
|---------------------------------------------------------------------------|
|---------------------------------------------------------------------------|
|
|----------------------------------------------------------------------|
|  S   S    S    S   S   S    S    S    S    S    S    S   S   S    S    S
|---------------------------------------------------------------------------|
|---------------------------------------------------------------------------|
|---------------------------------------------------------------------------|
|---------------------------------------------------------------------------|
|--5---5----5----5---5---5----5----5----5----5----5----5---5---5----5----5--|
|--3---3----3----3---3---3----3----3----3----3----3----3---3---3----3----3--|


  Gtr II
  E S E S S S E S E      S  S S    E S E      S  S S E S E S S S
|-------------------------------|--------------------------------|
|-------------------------------|--------------------------------|
|-4-4-4-4-4-4-------------------|--7-7-7------7--7-7-------------|
|-4-4-4-4-4-4-5-5-5------5--5-5-|--7-7-7------7--7-7-7-7-7-7-7-7-|
|-2-2-2-2-2-2-5-5-5------5--5-5-|--5-5-5------5--5-5-7-7-7-7-7-7-|
|-------------3-3-3------3--3-3-|--------------------5-5-5-5-5-5-|
|
| Gtr III
| H           Q      S   S  E      Q      S   S  E   H
|-2-----------3------3----------|--0-----------------0-----------|
|-3----------------------3------|-10------5----------5-----------|
|-4-----------4-----(4)-(4)-4---|--7-----(7)--6------6-----------|
|-4-----------5------5---5--5---|--7-----(7)-(7)-7---7-----------|
|-2-----------5------5---5--5---|--------------------7-----------|
|-------------3------3---3--3---|--------------------------------|


  E S E S S S E S E      S  S S    E S E      S  S S E S E S S S
|-------------------------------|-----------------------------------|
|-------------------------------|-----------------------------------|
|-4-4-4-4-4-4-------------------|--7-7-7------7--7-7----------------|
|-4-4-4-4-4-4-5-5-5------5--5-5-|--7-7-7------7--7-7-7-7-7-7-7-7----|
|-2-2-2-2-2-2-5-5-5------5--5-5-|--5-5-5------5--5-5-7-7-7-7-7-7----|
|-------------3-3-3------3--3-3-|--------------------5-5-5-5-5-5----|
|
| H           Q      S   S  E      Q      S   S  E   H
|-2-----------3------3----------|--0-----------------0--------------|
|-3----------------------3------|-10------5----------5--------------|
|-4-----------4-----(4)-(4)-4---|--7-----(7)--6------6--------------|
|-4-----------5------5---5--5---|--7-----(7)-(7)-7---7--------------|
|-2-----------5------5---5--5---|--------------------7--------------|
|-------------3------3---3--3---|-----------------------------------|


  S S S S S S S S S S S S  S   S  S S    S S S S  S   S  S S S S S S S S S S
|-------------------------------------|--------------------------------------|
|-------------------------------------|--------------------------------------|
|-4-4-4-4-4-4-4-4---------------------|--7-7-7-7--7---7--7-7-----------------|
|-4-4-4-4-4-4-4-4-5-5-5-5--5---5--5-5-|--7-7-7-7--7---7--7-7-7-7-7-7-7-7-7-7-|
|-2-2-2-2-2-2-2-2-5-5-5-5--5---5--5-5-|--5-5-5-5--5---5--5-5-7-7-7-7-7-7-7-7-|
|-----------------3-3-3-3--3---3--3-3-|----------------------5-5-5-5-5-5-5-5-|
|
| H               Q        S   S  E      Q        S   S  E   H
|-2---------------3--------3----------|--0-------------------0---------------|
|-3----------------------------3------|-10--------5----------5---------------|
|-4---------------4-------(4)-(4)-4---|--7-------(7)--6------6---------------|
|-4---------------5--------5---5--5---|--7-------(7)-(7)-7---7---------------|
|-2---------------5--------5---5--5---|----------------------7---------------|
|-----------------3--------3---3--3---|--------------------------------------|


  E S E S S S E S E      S  S S    E S E      S  S S E S E S S S
|-------------------------------|--------------------------------|
|-------------------------------|--------------------------------|
|-4-4-4-4-4-4-------------------|--7-7-7------7--7-7-------------|
|-4-4-4-4-4-4-5-5-5------5--5-5-|--7-7-7------7--7-7-7-7-7-7-7-7-|
|-2-2-2-2-2-2-5-5-5------5--5-5-|--5-5-5------5--5-5-7-7-7-7-7-7-|
|-------------3-3-3------3--3-3-|--------------------5-5-5-5-5-5-|
|
| H           Q      S   S  E      Q      S   S  E   H
|-2-----------3------3----------|--0-----------------0-----------|
|-3----------------------3------|-10------5----------5-----------|
|-4-----------4-----(4)-(4)-4---|--7-----(7)--6------6-----------|
|-4-----------5------5---5--5---|--7-----(7)-(7)-7---7-----------|
|-2-----------5------5---5--5---|--------------------7-----------|
|-------------3------3---3--3---|--------------------------------|


  E S E S S S E S E      S  S S    E S E      S  S S E S E S S S
|-------------------------------|-----------------------------------|
|-------------------------------|-----------------------------------|
|-4-4-4-4-4-4-------------------|--7-7-7------7--7-7----------------|
|-4-4-4-4-4-4-5-5-5------5--5-5-|--7-7-7------7--7-7-7-7-7-7-7-7----|
|-2-2-2-2-2-2-5-5-5------5--5-5-|--5-5-5------5--5-5-7-7-7-7-7-7----|
|-------------3-3-3------3--3-3-|--------------------5-5-5-5-5-5----|
|
| H           Q      S   S  E      Q      S   S  E   H
|-2-----------3------3----------|--0-----------------0--------------|
|-3----------------------3------|-10------5----------5--------------|
|-4-----------4-----(4)-(4)-4---|--7-----(7)--6------6--------------|
|-4-----------5------5---5--5---|--7-----(7)-(7)-7---7--------------|
|-2-----------5------5---5--5---|--------------------7--------------|
|-------------3------3---3--3---|-----------------------------------|


   S S S S S S S S  S S S S S S S S
|-----------------------------------|
|-----------------------------------|
|--4-4-4-4-4-4-4-4------------------|
|--4-4-4-4-4-4-4-4--5-5-5-5-5-5-5-5-|
|--2-2-2-2-2-2-2-2--5-5-5-5-5-5-5-5-|
|-------------------3-3-3-3-3-3-3-3-|
|
|  H                H
|-14---------------17---------------|
|-----------------------------------|
|-----------------------------------|
|-----------------------------------|
|-----------------------------------|
|-----------------------------------|


   S S S S S S S S  S S S S S S S S    S S S S S S S S  H
|-----------------------------------|------------------------|
|-----------------------------------|------------------------|
|--7-7-7-7-7-7-7-7------------------|--4-4-4-4-4-4-4-4-------|
|--7-7-7-7-7-7-7-7--7-7-7-7-7-7-7-7-|--4-4-4-4-4-4-4-4--5----|
|--5-5-5-5-5-5-5-5--7-7-7-7-7-7-7-7-|--2-2-2-2-2-2-2-2--5----|
|-------------------5-5-5-5-5-5-5-5-|-------------------3----|
|
|  H                H                  H                H
|-21---------------19---------------|-14---------------17----|
|-----------------------------------|------------------------|
|-----------------------------------|------------------------|
|-----------------------------------|------------------------|
|-----------------------------------|------------------------|
|-----------------------------------|------------------------|


  Gtr I
    W             W           W           W           W
|-^-2----------|-^0--------|-^2--------|-----------|-------------*|
|-^-3----------|-^2--------|-^3--------|-^3--------|-------------*|
|-^-2----------|-^2--------|-^4--------|-^0--------|-------------*|
|-^-0----------|-^2--------|-^4--------|-^0--------|-------------*|
|--------------|-^0--------|-----------|-^2--------|-------------*|
|--------------|-^0--------|-----------|-^3--------|-------------*|
|
| Gtr II
|   W             W           W           W          +H     H
|--------------|-----------|-----------|-----------|-------------*|
|--------------|-----------|-----------|-----------|-------------*|
|---7----------|-----------|--4--------|--4--------|-(4)---------*|
|---7----------|--7--------|--4--------|--5--------|-(5)---------*|
|---5----------|--7--------|--2--------|--5--------|-(5)---------*|
|--------------|--5--------|-----------|--3--------|-(3)---------*|
|
| Gtr III
|  +H     H       W           W           W           W
|-(17)---------|-----------|-----------|-----------|-------------*|
|--------------|-----------|-----------|-----------|-------------*|
|--------------|-----------|-----------|-----------|-------------*|
|--------------|-----------|-----------|-----------|-------------*|
|--------------|-----------|-----------|-----------|-------------*|
|--------------|-----------|-----------|-----------|-------------*|



Duration Legend
---------------
W - whole; H - half; Q - quarter; E - 8th; S - 16th; T - 32nd; X - 64th; a - acciaccatura
+ - note tied to previous; . - note dotted; .. - note double dotted
Uncapitalized letters represent notes that are staccato (1/2 duration)
Irregular groupings are notated above the duration line
Duration letters will always appear directly above the note/fret number it represents the
duration for.  Duration letters with no fret number below them represent rests.  Multi-
bar rests are notated in the form Wxn, where n is the number of bars to rest for.  Low
melody durations appear below the staff

Tablature Legend
----------------
 h   - hammer-on
 p   - pull-off
 b   - bend
 pb  - pre-bend
 r   - bend release (if no number after the r, then release immediately)
 /\  - slide into or out of (from/to "nowhere")
 s   - legato slide
 S   - shift slide
 - natural harmonic
[n]  - artificial harmonic
n(n) - tapped harmonic
 ~   - vibrato
 tr  - trill
 T   - tap
 TP  - trem. picking
 PM  - palm muting
\n/  - tremolo bar dip; n = amount to dip
 \n  - tremolo bar down
 n/  - tremolo bar up
/n\  - tremolo bar inverted dip
 =   - hold bend; also acts as connecting device for hammers/pulls
 <> - volume swell (louder/softer)
 x   - on rhythm slash represents muted slash
 o   - on rhythm slash represents single note slash

Misc Legend
-----------
 |  - bar
||  - double bar
||o - repeat start
o|| - repeat end
*|  - double bar (ending)
 :  - bar (freetime)
 $  - Segno
 &  - Coda
Tempo markers -  = BPM(8/16=s8/s16), where s8 = swing 8ths, s16 = swing 16ths





Comments


Popular Backyard Babies tabs & chords
Abandon 2 Bass Tabs
Abandon 1 Chords
Abandon Intro Chords
Nomadic 1 Chords
Where Were You? Chords
Babylon Tabs
Ghetto You Tabs
Abandon Ukulele
Nomadic Ukulele
Where Were You Ukulele


Song lyrics



↑ Back to top | Tablatures and chords are parodies/interpretations of the original songs. You may use it for private study, scholarship, research or language learning purposes only
© 2014 AZChords.com Contact us | Privacy policy | DMCA | Add/correct tabs | Request tabs | Top 50 tabs