» » »

Backstreet Boys, Thats What She Said Tabs (ver.2)

Artists:  A B C D E F G H I J K L M N O P Q R S T U V W X Y Z # 

Thats What She Said Tabs (ver.2)

Backstreet Boys Tabs
 Rating:
4/5 (4 votes)
Thats What She Said lessons Tabs too difficult? Try these video lessons and learn fast
                THAT'S WHAT SHE SAID - Backstreet Boys
--------------------------------------

Repeat this for verses:

e|---------------------------------0--0----0-------------|
B|---------0--------------3-----------0----0-------------|
G|------------2--------0--------2-----1----1-------------|
D|------2-----------2--------0--------2----2-------------|
A|---0-----------2--------------------2----2-------------|
E|------------------------------------0----0-------------|

The chorus goes like this:

     A      D        E      A
e|---0--0---1----1---0--0---0----0------0----------------|
B|---0--0---2----2---0--0---0----0---------0-------------|
G|---2--2---1----1---1--1---2----2-----------------------|
D|---2--2---0----0---2--2---2----2---2-------------------|
A|---0--0------------2--2---0----0-----------------------|
E|-------------------0--0--------------------------------|

     A      D        G      Em
e|---0--0---1----1---3--3---0----0------0----------------|
B|---0--0---2----2---3--3---0----0------0----------------|
G|---2--2---1----1---0--0---1----1-----------------------|
D|---2--2---0----0---0--0---2----2-----------------------|
A|---0--0------------1--1---2----2---2-------------------|
E|-------------------2--2---0----0-----------------------|
            
Submit corrections

comments powered by Disqus
↑ Back to top | Backstreet Boys Tabs for Thats What She Said. Lyrics for acoustic guitar and electric guitar. Tablatures and chords are parodies/interpretations of the original songs. You may use it for private study, scholarship, research or language learning purposes only