>
 >
Spanish Eyes

Spanish Eyes Guitar Tabs

Backstreet Boys - Spanish Eyes chords, tabs, tablatures, lyrics

Guitar lessons | Add/correct | Request | Top 50 tabs Artists:  A B C D E F G H I J K L M N O P Q R S T U V W X Y Z 0-9

Spanish Eyes Guitar Tabs – Backstreet Boys

CD, Sheet music, Poster

Do you like Spanish Eyes? Share with your friends now
ChordsChords v2TabsUkulele

arranged for 3 guitars ( the first play arpeggio, the second play Solo, 3rd Chords ) 

Intro:
       A           A/G#           F#m7           E
|--------0----|-------------|-------------|-------------|
|-------------|--------0----|--------2----|--------0----|
|----2--------|----2------2-|----2--------|-------------|
|------2----2-|------2------|------2----2-|------2----2-|
|-0-----------|-------------|-------------|----2--------|
|-------------|-4-----------|-2-----------|-0-----------|

        D              A/C#           D              E
|--------0/2/0---|-------------|--------2----|---------------|
|----3---------3-|--------0----|----3------3-|-------------0-|
|------2---------|----2--------|------2------|----------1----|
|-0--------------|------2----2-|-0-----------|-------2-------|
|----------------|-4-----------|-------------|----2----------|
|----------------|-------------|-------------|-0-------------|

Solo (Intro)
 |-12--12-12--10--9-----------12--12-12--10--9------10-|
 |-------------------12--10---------------------12-----|
 |-----------------------------------------------------|
 |-----------------------------------------------------|
 |-----------------------------------------------------|
 |-----------------------------------------------------|


|-12--12-12--10--9--------------9--10-------|----------------------------|
|-------------------12--10--12---------12---|-10-9-10-9-----10-9-10-9----|
|-------------------------------------------|----------11-------------11-|
|-------------------------------------------|----------------------------|
|-------------------------------------------|----------------------------|
|-------------------------------------------|----------------------------|

Verse 1:
       A              E               D
|-------------|--------------|-------------0----|
|--------2----|---------0----|------3---------0-|
|----2--------|--------------|----2---2---------|
|------2----2-|----2-------2-|-0--------0-------|
|-0-----------|------2-------|------------------|
|-------------|-0------------|------------------|
 Here we are in the arms of one another

       A              E            A/C#          A/C#
|-------------|--------------|-------------|-------------|
|--------2----|---------0----|--------2----|--------2----|
|----2--------|--------------|----2--------|----2--------|
|------2----2-|----2-------2-|------2----2-|------2----2-|
|-0-----------|------2-------|-4-----------|-4-----------|
|-------------|-0------------|-------------|-------------|
 And we still go on searching for each other

       D             D             A             A             D       
     D
|--------2----|--------2----|-------------|-------------|--------0/2--|--------2----|
|----3------3-|----3------3-|--------2----|--------2----|----3------3-|----3------3-|
|------2------|------2------|----2--------|----2--------|------2------|------2------|
|-0-----------|-0-----------|------2----2-|------2----2-|-0-----------|-0-----------|
|-------------|-------------|-0-----------|-0-----------|-------------|-------------|
|-------------|-------------|-------------|-------------|-------------|-------------|
 Knowing that hate is wrong and love is right for us tonight

     A/G#         A/G#            D             D
|-------------|------------|--------2----|--------2----|
|--------0----|-------0----|----3------3-|----3------3-|
|----2--------|---2--------|------2------|------2------|
|------2----2-|-----2----2-|-0-----------|-0-----------|
|-------------|------------|-------------|-------------|
|-4-----------|-4----------|-------------|-------------|
 When I look into your Spanish eyes

     F#m7            E             D             D
|-------------|-------------|--------2----|--------2----|
|--------2----|--------0----|----3------3-|----3------3-|
|----2--------|-------------|------2------|------2------|
|------2----2-|----2------2-|-0-----------|-0-----------|
|-------------|------2------|-------------|-------------|
|-2-----------|-0-----------|-------------|-------------|
 I know the reason why I am alive

     F#m7            E
|-------------|-------------|
|--------2----|--------0----|
|----2--------|-------------|
|------2----2-|----2------2-|
|-------------|------2------|
|-2-----------|-0-----------|
 And the world is so beautiful tonight
Chorus:
       A           A/G#           F#m7
|--------0----|-------------|-------------|
|-------------|--------0----|--------2----|
|----2--------|----2------2-|----2--------|
|------2----2-|------2------|------2----2-|
|-0-----------|-------------|-------------|
|-------------|-4-----------|-2-----------|
 It's a place I've never been

       E             D
|-------------|--------2----|
|--------0----|----3------3-|
|-------------|------2------|
|------2----2-|-0-----------|
|----2--------|-------------|
|-0-----------|-------------|
 And it comes from deep within

     A/C#            D             E
|-------------|--------2----|-------------|
|--------0----|----3------3-|--------0----|
|----2--------|------2------|----1--------|
|------2----2-|-0-----------|------2----2-|
|-4-----------|-------------|-2-----------|
|-------------|-------------|-------------|
 And it's telling me that I'm about to win first prize

       A           A/G#           F#m7
|--------0----|-------------|-------------|
|-------------|--------0----|--------2----|
|----2--------|----2------2-|----2--------|
|------2----2-|------2------|------2----2-|
|-0-----------|-------------|-------------|
|-------------|-4-----------|-2-----------|
 Knowing all I have to do

       E             D
|-------------|--------2----|
|--------0----|----3------3-|
|-------------|------2------|
|------2----2-|-0-----------|
|----2--------|-------------|
|-0-----------|-------------|
 Is reach out my hand to you

     A/C#            D             E           A
|-------------|--------2----|-------------|---------|
|--------0----|----3------3-|--------0----|-------2-|
|----2--------|------2------|----1--------|---------|
|------2----2-|-0-----------|------2----2-|----2----|
|-4-----------|-------------|-2-----------|-0-------|
|-------------|-------------|-------------|---------|
 Anytime I want to look into your Spanish eyes

Verse 2:
       A        E                 D
|--------------2--------|--------0-----------|
|--------2----------2---|----3-----3----2--0-|
|----2------------------|------2-----2-------|
|------2----2-----2---2-|-0------------------|
|-0---------------------|--------------------|
|-----------------------|--------------------|
 Let it be if we're nothing more than dreamers

       A              E           A/C#          A/C#
|-------------|--------------|-------------|-------------|
|--------2----|---------0----|--------2----|--------2----|
|----2--------|--------------|----2--------|----2--------|
|------2----2-|----2-------2-|------2----2-|------2----2-|
|-0-----------|------2-------|-4-----------|-4-----------|
|-------------|-0------------|-------------|-------------|
 Who believe that we see no wall between us
       D             D             A         
      D
|--------2----|--------2----|-------------|
|----3------3-|----3------3-|--------2----|
|------2------|------2------|----2--------|
|-0-----------|-0-----------|------2----2-|
|-------------|-------------|-0-----------|
|-------------|-------------|-------------|
 How can they be in my heart and in my mind 
      A             D  
|-------------|--------0----|--------0-----|
|--------2----|----3-----3--|----3-----3---|
|----2--------|------2-----2|------2-----2-|
|------2----2-|-0-----------|-0------------|
|-0-----------|-------------|--------------|
|-------------|-------------|--------------|
       when all I could find

        A/G#              D             D
|----------------0-|--------2----|--------2----|
|----------0-------|----3------3-|----3------3-|
|----2---2---2-----|------2------|------2------|
|------2-------2---|-0-----------|-0-----------|
|------------------|-------------|-------------|
|-4----------------|-------------|-------------|
 When I look into your Spanish eyes

      F#m7           E             D             D
|-------------|-------------|--------2----|--------2----|
|--------2----|--------0----|----3------3-|----3------3-|
|----2--------|-------------|------2------|------2------|
|------2----2-|----2------2-|-0-----------|-0-----------|
|-------------|------2------|-------------|-------------|
|-2-----------|-0-----------|-------------|-------------|
 I know the reason why I am alive

      F#m7           E
|-------------|-------------|
|--------2----|--------0----|
|----2--------|-------------|
|------2----2-|----2------2-|
|-------------|------2------|
|-2-----------|-0-----------|
 And the world is so beautiful tonight

Chorus:
       A           A/G#           F#m7
|--------0----|-------------|-------------|
|-------------|--------0----|--------2----|
|----2--------|----2------2-|----2--------|
|------2----2-|------2------|------2----2-|
|-0-----------|-------------|-------------|
|-------------|-4-----------|-2-----------|
 It's a place I've never been

       E             D
|-------------|--------2----|
|--------0----|----3------3-|
|-------------|------2------|
|------2----2-|-0-----------|
|----2--------|-------------|
|-0-----------|-------------|
 And it comes from deep within

     A/C#            D             E
|-------------|--------2----|-------------|
|--------0----|----3------3-|--------0----|
|----2--------|------2------|----1--------|
|------2----2-|-0-----------|------2----2-|
|-4-----------|-------------|-2-----------|
|-------------|-------------|-------------|
 And it's telling me that I'm about to win first prize

       A           A/G#           F#m7
|--------0----|-------------|-------------|
|-------------|--------0----|--------2----|
|----2--------|----2------2-|----2--------|
|------2----2-|------2------|------2----2-|
|-0-----------|-------------|-------------|
|-------------|-4-----------|-2-----------|
 Knowing all I have to do

       E             D
|-------------|--------2----|
|--------0----|----3------3-|
|-------------|------2------|
|------2----2-|-0-----------|
|----2--------|-------------|
|-0-----------|-------------|
 Is reach out my hand to you

     A/C#            D             E           A
|-------------|--------2----|-------------|---------|
|--------0----|----3------3-|--------0----|-------2-|
|----2--------|------2------|----1--------|---------|
|------2----2-|-0-----------|------2----2-|----2----|
|-4-----------|-------------|-2-----------|-0-------|
|-------------|-------------|-------------|---------|
 Anytime I want to look into your Spanish eyes

Bridge:
       D             D             A/C#           A/C#
|--------2----|--------2----|--------2-----|--------2-----|
|----3------3-|----3------3-|----2-----2---|----2-----2---|
|------2------|------2------|------2-----2-|------2-----2-|
|-0-----------|-0-----------|--------------|--------------|
|-------------|-------------|-4------------|-4------------|
|-------------|-------------|--------------|--------------|
 I loved you from a distance thought I couldn't reach that far

       A              A            F#m7         F#m7
|--------------|--------------|------------|------------|
|--------2-----|--------2-----|----2---2---|----2---2---|
|----2-----2---|----2-----2---|------4-----|------4-----|
|------2-----2-|------2-----2-|------------|------------|
|-0------------|-0------------|------------|------------|
|--------------|--------------|-2----------|-2----------|
                             Solo:
                             *|------------10--10-10-10--------|
                              |----9-10-12---------------12-10-|
                              |-11-----------------------------|
                              |--------------------------------|
                              |--------------------------------|
                              |--------------------------------|
 I can't believe how close that we are


      A/G#          A/G#           A/C#

|----2---4--2-|----2---4--2-|----2---4-2---|
|------2------|------2------|------2-----2-|
|-------------|-------------|--------------|
|-------------|-------------|--------------|
|-------------|-------------|-4------------|
|-4-----------|-4-----------|--------------|

      A/C#            D 
   
|----2---4-2---|--------2-----|--------2-----|
|------2-----2-|----3-----3---|----3-----3---|
|--------------|------2-----2-|------2-----2-|
|--------------|-0------------|-0------------|
|-4------------|--------------|--------------|
|--------------|--------------|--------------|

Solo:
                              |------------10--10-10-10--------|
                              |----9-10-12---------------12-10-|
                              |-11-----------------------------|
                              |--------------------------------|
                              |--------------------------------|
                              |--------------------------------|
             When I look into Your Spanish eyes

      F#m7           E
|-------------|-------------|
|--------2----|--------0----|
|----2--------|-------------|
|------2----2-|----2------2-|
|-------------|------2------|
|-2-----------|-0-----------|
 And the world is so beautiful tonight

Chorus:
       A           A/G#           F#m7
|--------0----|-------------|-------------|
|-------------|--------0----|--------2----|
|----2--------|----2------2-|----2--------|
|------2----2-|------2------|------2----2-|
|-0-----------|-------------|-------------|
|-------------|-4-----------|-2-----------|
 It's a place I've never been

       E             D
|-------------|--------2----|
|--------0----|----3------3-|
|-------------|------2------|
|------2----2-|-0-----------|
|----2--------|-------------|
|-0-----------|-------------|
 And it comes from deep within

     A/C#            D             E
|-------------|--------2----|-------------|
|--------0----|----3------3-|--------0----|
|----2--------|------2------|----1--------|
|------2----2-|-0-----------|------2----2-|
|-4-----------|-------------|-2-----------|
|-------------|-------------|-------------|
 And it's telling me that I'm about to win first prize

       A           A/G#           F#m7
|--------0----|-------------|-------------|
|-------------|--------0----|--------2----|
|----2--------|----2------2-|----2--------|
|------2----2-|------2------|------2----2-|
|-0-----------|-------------|-------------|
|-------------|-4-----------|-2-----------|
 Knowing all I have to do

       E             D
|-------------|--------2----|
|--------0----|----3------3-|
|-------------|------2------|
|------2----2-|-0-----------|
|----2--------|-------------|
|-0-----------|-------------|
 Is reach out my hand to you

     A/C#            D             E           A
|-------------|--------2----|-------------|---------|
|--------0----|----3------3-|--------0----|-------2-|
|----2--------|------2------|----1--------|---------|
|------2----2-|-0-----------|------2----2-|----2----|
|-4-----------|-------------|-2-----------|-0-------|
|-------------|-------------|-------------|---------|
 Anytime I want to look into your Spanish eyes

Enjoy :)





Comments


Popular Backstreet Boys tabs & chords
Larger Than Life Bass Tabs
We've Got It Goin' On 1 Bass Tabs
Drowning 1 Chords
If You Knew What I Knew Chords
Quit Playing Games With My Heart Chords
I Need You Tonight Tabs
No One Else Comes Close Tabs
I Promise You With Everything I Am Ukulele
Lift Me Up Ukulele
Quit Playing Games Ukulele


Song lyrics



↑ Back to top | Tablatures and chords are parodies/interpretations of the original songs. You may use it for private study, scholarship, research or language learning purposes only
© 2014 AZChords.com Contact us | Privacy policy | DMCA | Add/correct tabs | Request tabs | Top 50 tabs