» » »

Backstreet Boys, I Need You Tonight Tabs (ver.1)

Artists:  A B C D E F G H I J K L M N O P Q R S T U V W X Y Z # 

I Need You Tonight Tabs (ver.1)

Backstreet Boys Tabs
Rating:
1/5 (1 vote)
I Need You Tonight lessons Tabs too difficult? Try these video lessons and learn fast
                (Intro)
Tuning: E A D G B E

It may be off alittle, maybe by alot. It's the closest I could get it though, I 
just got tired of messing with it. The low notes (0, 2, 3)
I think may be done with another guitar.

If you got quick hands:
|-12-11--------------------------12-11---------------------------|
|-------------12------14---------------------12-----------------1|
|-----------0----0-12----------0-----------0----0---12-13-----2--|
|---------2------------------0-----------2--------2---------3----|
|-------0------------------2-----------2------------------3------|
|------------------------3---------------------------------------|

Here is the simpler version with two guitars.
Guitar 1:
|-12-11--------------------------12-11---------------------------|
|-------------12------14---------------------12------------------|
|------------------12-------------------------------12-13--------|
|----------------------------------------------------------------|
|----------------------------------------------------------------|
|----------------------------------------------------------------|

Guitar 2:
|----------------------------------------------------------------|
|---------------------------------------------------------------1|
|-----------0----0-------------0-----------0----0-------------2--|
|---------2------------------0-----------2--------2---------3----|
|-------0------------------2-----------2------------------3------|
|------------------------3---------------------------------------|


This is my first tabs so I hope it's right or close enough.
            
Submit corrections

comments powered by Disqus
↑ Back to top | Backstreet Boys Tabs for I Need You Tonight. Lyrics for acoustic guitar and electric guitar. Tablatures and chords are parodies/interpretations of the original songs. You may use it for private study, scholarship, research or language learning purposes only