» » »

Incomplete Tabs (ver.4)

Artists:  A B C D E F G H I J K L M N O P Q R S T U V W X Y Z # 

Incomplete Tabs (ver.4)

Backstreet Boys
Rating:
0/5 (0 votes)

Hard to play? Try these video lessons and learn fast.
                NOTICE - THIS VERSION IS ONLY FOR GUITAR , PREFERABLY AN ACOUSTIC.
         THE ORIGINAL SONG SOUNDS A BIT DIFFERENT CAUSE ITS FOR KEYBOARD.

Std. tunnig - EADGBE

THERE ARE 2 GUITARS FOR THE COMPLETE SONG .

CHORDS USED - Am Em G D C

INTRO AND THE VERSE -

Am Em G D

INRO GOES LIKE THIS - (GUITAR I)


E||-----------------|-----------------|-----------------|--------------||
B||-----------1-----|-----------0-----|-----------0-----|--------3-----||
G||--------2-----2--|--------------0--|--------------0--|-----------2--||
D||-----2-----------|--------2--------|--------0--------|-----0--------||
A||--0--------------|-----2-----------|-----2-----------|--0-----------||
E||-----------------|--0--------------|--3--------------|--------------||

THE VERSE, ALONG WITH ABOVE CONSISTS OF SOME LIGHT STRUMMING OF THE SAME CHORDS - 
II)

Am Em G D

Strumming Pattern (1/8th notes in a bar )-

Example -
    down down/up down/up/down
E||--0-----0---0----0---0---0--||
B||--1-----1---1----1---1---1--||
G||--2-----2---2----2---2---2--||
D||--2-----2---2----2---2---2--||
A||--0-----0---0----0---0---0--||
E||----------------------------||

Same Pattern For the Verse I WITH THE SAME CHORDS.(Am E G D )
(till, where i'm goin does anybody guess)

STRUM ALL THE FOUR CHORDS IN THE ABOVE PATTERN OVER THE NOTES PLAYED BY GUITAR I .

THEN PAUSE AND STRUM THE CHORD - C  (SLOWY - EACH NOTE SOUNDING VERY CLEAR)

AND THEN ...
----------------------------------------------

Second Verse Consists of ONLY GUITAR II - ( from, i tried to go like ....)

Chords used are Em G D C

STRUMMING PATTERN IS DIFFERENT HERE ,

ITS OF 2 BARS AND A BIT CONFUSING FOR BEGINNERS .

    DOWN    DOWN    UP   DOWN/UP/DOWN UP  DOWN
E||--0--------0------0--|--3--3--3----3----3----||
B||--0--------0------0--|--3--3--3----3----3----||
G||--0--------0------0--|--0--0--0----0----0----||
D||--2--------2------2--|--0--0--0----0----0----||
A||--2--------2------2--|--2--2--2----2----2----||
E||--0--------0------0--|--3--3--3----3----3----||
     Em       Em     Em    G  G  G    G    G


NOTE THAT THE CHORD CHANGES WITH THE BAR ,IT IS VERY IMPORTANT THAT U DO NOT PAUSE 
THESE CHORD SHIFTS.

SAME GOES FOR CHORDS - D AND C

-----------------------------------

CHORUS -

PAUSE AT CHORD C ON SECOND GUITAR.

AND THEN WHEN THE GUY SAYS --  "INCOMPLETE"

THE GUITAR I STARTS SAME PLAYING THE CHORDS AS IN INTRO.....( ONLY 1 TIME)
(GUITAR II DOESNT PLAY AT THIS TIME

SO , THATS ALL FOR THE COMPLETE SONG .
REMEMBER TO USE THE STRUMMING PATTERNS GIVEN AND LEARN THEM FOR YOUR OWN BENEFIT.

THIS IS HOW IT LOOKS - GUITAR II

Am     E
Empty spaces
G                 D
Fill me up with holes
Am        E
Distant faces
         G            D
With no place left to go
Am              E
Without you within me
G                D
I can't find no rest
Am          E      G      D
Where I'm going is anybody's guess

C (SLOWLY)

VERSE II/PRE-CHORUS ( DIFFERENT STRUMMING PATTERN )
    E       G
I've tried
  D                      C
To go on like I never knew you
E      G
I'm awake
D                     C
But my world is half asleep
E       G
I pray
          D            C
For this heart to be unbroken
E               G       D  C
But without you all I'm going to be is


In-com-plete


NOTE AGAIN - THIS DIFFERS FROM THE REAL MUSIC IN THE SONG BECAUSE THIS IS ARRANGED FOR 
NOT PAINO AND GOES 100% ACCURATE WITH THE SONG.

IF YOU LIKE THIS INFO , PLZ RATE IT AND IF YOU WANT INFO'S FOR OTHER FAMOUS SONGS BY 
ARTISTS, PLEASE MAKE A REQUEST WHILE COMMENTING ON THIS INFO
AND YOU ARE MOST WELCOMED.YOUR REQUESTED SONG WILL BE SUBMITTED BY THE VERY NEXT WEEK.
            
Hard to play? Try these video lessons and learn fast. | Correct




comments powered by Disqus
↑ Back to top | Tablatures and chords are parodies/interpretations of the original songs. You may use it for private study, scholarship, research or language learning purposes only