» » »

Backseat Goodbye, Summer Drive Song Tabs (ver.1)

Artists:  A B C D E F G H I J K L M N O P Q R S T U V W X Y Z # 

Summer Drive Song Tabs (ver.1)

Backseat Goodbye Tabs
 Rating:
4/5 (4 votes)
Summer Drive Song lessons Tabs too difficult? Try these video lessons and learn fast
1
                Backseat Goodbye
"Summer Drive Song"


Standard Tuning


Intro
e-----------------------------|
B-----------------------------|
G--5-------5------------------|
D--5--5----5--5---------5-----|
A--3--5----3--5-----5/7---7/5-|
E-----3-------3---------------|
"I bought a new life for $1.25..."


e-------------------------------------------------------------|
B-------------------------------------------------------------|
G-------------------------------------------------------------|
D--5--x--5-5--x--5-5-------5------5--x--5-5--x--3-3-3-3-3-3-3-|
A--5--x--5-5--x--5-5---5/7---7/5--5--x--5-5--x--3-3-3-3-3-3-3-|
E--3--x--3-3--x--3-3--------------3--x--3-3--x--1-1-1-1-1-1-1-|


Verses
e---------------------------------|
B---------------------------------|
G---------------------------------|
D--5--x--5-5--x--5-5-------5------|
A--5--x--5-5--x--5-5---5/7---7/5--|
E--3--x--3-3--x--3-3--------------|
"It isn't easy growing up here..."


e---------------------------------|
B---------------------------------|
G---------------------------------|
D--5--x--5-5--x--5-5---5-5-5------|
A--5--x--5-5--x--5-5---5-5-5------|
E--3--x--3-3--x--3-3---3-3-3------|
"I'm not the best with words..."


e-------------------------------|
B-------------------------------|
G------7------------------------|
D------7------------------------|
A------5------------------------|
E-------------------------------|
"And I can't read minds anymore"


e---------------------------------------|
B---------------------------------------|
G---------------------------------------|
D--5--x--5-5-5--x--5-5-5--x--5-5-5------|
A--5--x--5-5-5--x--5-5-5--x--5-5-5------|
E--3--x--3-3-3--x--3-3-3--x--3-3-3------|
"The traffic in this town is really p**sing me off..."


e---------------------------------------|
B---------------------------------------|
G--7--x--7-7-7--x--7-7-7--x--7-7-7------|
D--7--x--7-7-7--x--7-7-7--x--7-7-7------|
A--5--x--5-5-5--x--5-5-5--x--5-5-5------|
E---------------------------------------|
"The people here don't ever like to sing in their cars..."


e---------------------------------------|
B---------------------------------------|
G--5--x--5-5-5--x--5-5-5--x--5-5-5------|
D--5--x--5-5-5--x--5-5-5--x--5-5-5------|
A--3--x--3-3-3--x--3-3-3--x--3-3-3------|
E---------------------------------------|
"They just turn their radios up to drown out their thoughts..."


e---------------------------------------|
B---------------------------------------|
G---------------------------------------|
D--5--x--5-5-5--x--5-5-5--x--5-5-5------|
A--5--x--5-5-5--x--5-5-5--x--5-5-5------|
E--3--x--3-3-3--x--3-3-3--x--3-3-3------|

Choruses (Chords)
e---------------------------------------|
B---------------------------------------|
G-----7--5------------------------------|
D--5--7--5--5---------------------------|
A--5--5--3--5---------------------------|
E--3--------3---------------------------|
"California sunshine and Tennessee rain..."


Bridge
e-------------------------------|
B-------------------------------|
G-------------------------------|
D-------------------------------|
A-----5--3-2---------3-2-3-2----|
E--3---------3--1--1---------3--|

e-------------------------------|
B-------------------------------|
G-------------------------------|
D-------------------------------|
A-----5--3-2---------3-3--------|
E--3---------3--1--1------------|


~~LYRICS:~~
I bought a new life for $1.25 and some sunglasses too.
It isn't easy growing up here. But don't take my advice.
I'm not the best with words. And I can't read minds anymore.
The traffic in this town is really p**sing me off.
The people here don't ever like to sing in their cars.
They just turn their radios up to drown out their thoughts.
California sunshine and Tennessee rain.
I'm an East Coast kid with a West Coast way.
And I don't mind the weather but I hate the way it has to change.
Making out to mixtapes with Limbeck, Katrina and The Waves.
Did I mention how I used to hate that song.
Before I met that girl that was in love with The Beatles.
California girls wear their sunglasses at night.
Turns outs that Tom was right.
All the vampires hangout on Ventura Boulevard.
Uptown girls like to go down on the boys.
That pretend they don't listen to the radio.
The people inside hate the people outside.
And the people outside are too drunk to care.
Yeah the people outside are too drunk to care.
I kinda like it when you don't remember my name.
I'm just another face to forget.
Hey what time did you say that the end is coming?
I'm not sure if I'm ready yet. California sunshine and Tennessee rain.
I'm an East Coast kid with a West Coast way.
And I don't mind the weather but I hate the way it has to change.
Making out to mixtapes with Limbeck, Katrina and The Waves.
Did I mention how I used to hate that song.
Before I met that girl that was in love with The Beatles.
And did I mention that sometimes I'm not right?
            
Submit corrections

comments powered by Disqus
↑ Back to top | Backseat Goodbye Tabs for Summer Drive Song. Lyrics for acoustic guitar and electric guitar. 1 Tablatures and chords are parodies/interpretations of the original songs. You may use it for private study, scholarship, research or language learning purposes only