» » »

Backseat Goodbye, Red Balloon Tabs (ver.1)

Artists:  A B C D E F G H I J K L M N O P Q R S T U V W X Y Z # 

Red Balloon Tabs (ver.1)

Backseat Goodbye Tabs
 Rating:
4/5 (4 votes)
Red Balloon lessons Tabs too difficult? Try these video lessons and learn fast
                Capo 1st Fret (All positions relative to capo!)

     D/D       D/A            E7/E         E7/C         A7/A     A7/E
E----------------------T----0------------------------------------------------------------------|
A--------------0-------W-------2--------2--2------------0--------------------------------------|
D----0-----------------I-------0-----------0--------------2-----2--2---------------------------|
G------2----------2----C-------1-----------1--------------0--------0---------------------------|
B------3----------3----E-------0-----------0--------------2--------2---------------------------|
e------2-2--------2-2--<<------0--0--------0--0-----------0--0-----0--0------------------------|
(Darling, you're my red balloon...)


            *The chorus is a little tougher, he changes chords after one stroke, so be quick!*

E----------------------------------------3--3-------3--3------------------|
A-------------------------------------------2----------0---------------0--|
D---0--------4--------4--------2------------0----------2--------0---------|
G------2-------3--------0--------0----------0----------0----------2-----2-|
B------3-------2--------3--------2----------3----------3----------3-----3-|
e------2--0----0--0-----2--0-----0--0-------3--3-------3--3-------2-----2-|


Ending: Just strum each chord in the beginning part once:

D                  E7                 A7           D *let ring*
Darling, you're my red balloon, I'll never let you go
            
Submit corrections

comments powered by Disqus
↑ Back to top | Backseat Goodbye Tabs for Red Balloon. Lyrics for acoustic guitar and electric guitar. Tablatures and chords are parodies/interpretations of the original songs. You may use it for private study, scholarship, research or language learning purposes only