» » »

Backseat Goodbye, Lost In Love Tabs (ver.1)

Artists:  A B C D E F G H I J K L M N O P Q R S T U V W X Y Z # 

Lost In Love Tabs (ver.1)

Backseat Goodbye Tabs
 Rating:
4/5 (4 votes)
Lost In Love lessons Tabs too difficult? Try these video lessons and learn fast
                Backseat Goodbye - Lost In Love 
Guitar Tabs                          
                                  Capo  |  1st
                          Tuning EADGBE | Normal

    verse 1&2
    muted slightly   right before the chorus| after the 2nd verse before
                                            |                      Chorus
 E|------------------|----------------------|-------------------------------|
 B|------------------|----------------------|-------------------------------|
 G|-----0-------0----|-----0--------0-------|---0--0------------------------|
 D|------0-----0-0---|----0-0------0-0------|---0--0------------------------| 
 A|---2-----2h3------|-2h3-----2h3----------|---2--2------------------------|
 E|-3----------------|----------------------|---3--3------------------------|
               Chorus    2nd chorus "Lost in love but its.."   
 E|-3--3-------------|-------------------------------------|
 B|-3--3-------------|------------------Un-Muted-----------|
 G|-0--0-------------|-----0-------0-----------------------|
 D|-0--2-------------|------0-----0-0----------------------| 
 A|-2--3-------------|---2-----2h3-------------------------|
 E|-3----------------|--3----------------------------------|
   After the 2nd chorus - Slightly muted again
 E|--------------------------------------------------------------|
 B|--------------------------------------------------------------|
 G|----0------0-------0----------12-HARMONICS----0------0--------|
 D|---0-0----0-0-----0-0--------12--------------0-0----0-0-------| 
 A|-------2h3-----------2h3-------------------------2h3----------|
 E|-3---------------3--------------------------3-----------------|

    Most of The other 
Parts he's playing this.  
 E|-3--3-------------|
 B|-3--3-------------|
 G|-0--0-------------|
 D|-0--2-------------|
 A|-2--3-------------|
 E|-3----------------|


So there yeah go
any question ? Comments? or Corrections? 
            
Submit corrections

comments powered by Disqus
↑ Back to top | Backseat Goodbye Tabs for Lost In Love. Lyrics for acoustic guitar and electric guitar. Tablatures and chords are parodies/interpretations of the original songs. You may use it for private study, scholarship, research or language learning purposes only