» » »

Keep It Casual Tabs (ver.1)

Artists:  A B C D E F G H I J K L M N O P Q R S T U V W X Y Z # 

Keep It Casual Tabs (ver.1)

Backseat Goodbye
Rating:
0/5 (0 votes)

Tabs too difficult? Try these video lessons and learn fast.
                -------------------------------------------------------------------------------
-------------------------------------------------------------------------------


Standard Tuning


Chords Used:
G      320033
Cadd9  032033
Dadd11 200033
G5     355xxx
C5     x355xx
F5     133xxx

For notation's sake, I will refer to "Cadd9" as "C" and "Dadd11" as "D"
Other notes:
The "X" changes meaning for different parts of the song. In the Intro, the "X" is a muted Strum,
while in the Verse, the "X" changes to a sort of slap on the strings with the right hand to
produce a percussive backbeat. Also, in the intro the double "X" on the "+a" can be changed to
the actual chord they precede, but it sounds best if you sort of crescendo into it.



INTRO

              G       G G   G   G              C       C C   C    C
e|-----------|3-----XX3-3-X-3|X-3-X-----------|3-----XX3-3-X-3-|X-3------------3----|
B|-----------|3-----XX3-3-X-3|X-3-X-----------|3-----XX3-3-X-3-|X-3---3/5--3-5---3\5|
G|-----------|0-----XX0-0-X-0|X-0-X-----------|0-----XX0-0-X-0-|X-0-----------------|
D|-----------|0-----XX0-0-X-0|X-0-X-----------|2-----XX2-2-X-2-|X-2-----------------|
A|-----------|2-----XX2-2-X-2|X-2-X-----------|3-----XX3-3-X-3-|X-3-----------------|
E|-3-3/5-3-0-|3-----XX3-3-X-3|X-3-X-3-3/5-3-0-|0-----XX0-0-X-0-|X-0-----------------|
   + 3 + 4 +  1 + 2 +a3 + 4 + 1 + 2 + 3 + 4 +  1 + 2 +a3 + 4 +  1 + 2 +  a 3 + 4 + a

  G       G G   G    G              C       C C   G (let ring)
e|3-----XX3-3-X-3-|X-3-X-----------|3-----XX3-3-X-3-|------3--------|
B|3-----XX3-3-X-3-|X-3-X-----------|3-----XX3-3-X-3-|--------3------|
G|0-----XX0-0-X-0-|X-0-X-----------|0-----XX0-0-X-0-|----------0---0|
D|0-----XX0-0-X-0-|X-0-X-----------|2-----XX2-2-X-2-|------------0--|
A|2-----XX2-2-X-2-|X-2-X-----------|3-----XX3-3-X-2-|---------------|
E|3-----XX3-3-X-3-|X-3-X-3-3/5-3-0-|0-----XX0-0-X-3-|---------------|
  1 + 2 +a3 + 4 +  1 + 2 + 3 + 4 +  1 + 2 +a3 + 4 +  1 + 2 + 3 + 4 +

VERSE

  C C   D   D   G   G   D D G G G C C   D   D   G   G   D D G G G 
e|3-3-X-3---3-X-3|--3-X-3-3-3-3-3|3-3-X-3---3-X-3|--3-X-3-3-3-3-3|
B|3-3-X-3---3-X-3|--3-X-3-3-3-3-3|3-3-X-3---3-X-3|--3-X-3-3-3-3-3|
G|0-0-X-0---0-X-0|--0-X-0-0-0-0-0|0-0-X-0---0-X-0|--0-X-0-0-0-0-0|
D|2-2-X-0---0-X-0|--0-X-0-0-0-0-0|2-2-X-0---0-X-0|--0-X-0-0-0-0-0|
A|3-3-X-0---0-X-2|--2-X-0-0-2-2-2|3-3-X-0---0-X-2|--2-X-0-0-2-2-2|
E|0-0-X-2---2-X-3|--3-X-2-2-3-3-3|0-0-X-2---2-X-3|--3-X-2-2-3-3-3|
  1 + 2 + 3 + 4 + 1 + 2 + 3 + 4 + 1 + 2 + 3 + 4 + 1 + 2 + 3 + 4 + 

  C C   D   D   G   G   D D G G G C C   D   D   G   G   D D G G G 
e|3-3-X-3---3-X-3|--3-X-3-3-3-3-3|3-3-X-3---3-X-3|--3-X-3-3-3-3-3|
B|3-3-X-3---3-X-3|--3-X-3-3-3-3-3|3-3-X-3---3-X-3|--3-X-3-3-3-3-3|
G|0-0-X-0---0-X-0|--0-X-0-0-0-0-0|0-0-X-0---0-X-0|--0-X-0-0-0-0-0|
D|2-2-X-0---0-X-0|--0-X-0-0-0-0-0|2-2-X-0---0-X-0|--0-X-0-0-0-0-0|
A|3-3-X-0---0-X-2|--2-X-0-0-2-2-2|3-3-X-0---0-X-2|--2-X-0-0-2-2-2|
E|0-0-X-2---2-X-3|--3-X-2-2-3-3-3|0-0-X-2---2-X-3|--3-X-2-2-3-3-3|
  1 + 2 + 3 + 4 + 1 + 2 + 3 + 4 + 1 + 2 + 3 + 4 + 1 + 2 + 3 + 4 + 

  C C   D   D   G   G   D   D   C   C   D D D   G   G   D D G G G
e|3-3-X-3---3-X-3|--3-X-3---3-X-3|--3-X-3-3-3-X-3|--3-X-3-3-3-3-3|
B|3-3-X-3---3-X-3|--3-X-3---3-X-3|--3-X-3-3-3-X-3|--3-X-3-3-3-3-3|
G|0-0-X-0---0-X-0|--0-X-0---0-X-0|--0-X-0-0-0-X-0|--0-X-0-0-0-0-0|
D|2-2-X-0---0-X-0|--0-X-0---0-X-2|--2-X-0-0-0-X-0|--0-X-0-0-0-0-0|
A|3-3-X-0---0-X-2|--2-X-0---0-X-3|--3-X-0-0-0-X-2|--2-X-0-0-2-2-2|
E|0-0-X-2---2-X-3|--3-X-2---2-X-0|--0-X-2-2-2-X-3|--3-X-2-2-3-3-3|
  1 + 2 + 3 + 4 + 1 + 2 + 3 + 4 + 1 + 2 + 3 + 4 + 1 + 2 + 3 + 4 + 


  C C   D   D   G   G   D D G G G C C   D   D   G   G   D D G G G 
e|3-3-X-3---3-X-3|--3-X-3-3-3-3-3|3-3-X-3---3-X-3|--3-X-3-3-3-3-3|
B|3-3-X-3---3-X-3|--3-X-3-3-3-3-3|3-3-X-3---3-X-3|--3-X-3-3-3-3-3|
G|0-0-X-0---0-X-0|--0-X-0-0-0-0-0|0-0-X-0---0-X-0|--0-X-0-0-0-0-0|
D|2-2-X-0---0-X-0|--0-X-0-0-0-0-0|2-2-X-0---0-X-0|--0-X-0-0-0-0-0|
A|3-3-X-0---0-X-2|--2-X-0-0-2-2-2|3-3-X-0---0-X-2|--2-X-0-0-2-2-2|
E|0-0-X-2---2-X-3|--3-X-2-2-3-3-3|0-0-X-2---2-X-3|--3-X-2-2-3-3-3|
  1 + 2 + 3 + 4 + 1 + 2 + 3 + 4 + 1 + 2 + 3 + 4 + 1 + 2 + 3 + 4 + 

  C C   D   D   G   G   D   D   C   C   D D D   G   G   G G G G G
e|3-3-X-3---3-X-3|--3-X-3---3-X-3|--3-X-3-3-3-X-3|--3-X-3-3-3-3-3|
B|3-3-X-3---3-X-3|--3-X-3---3-X-3|--3-X-3-3-3-X-3|--3-X-3-3-3-3-3|
G|0-0-X-0---0-X-0|--0-X-0---0-X-0|--0-X-0-0-0-X-0|--0-X-0-0-0-0-0|
D|2-2-X-0---0-X-0|--0-X-0---0-X-2|--2-X-0-0-0-X-0|--0-X-0-0-0-0-0|
A|3-3-X-0---0-X-2|--2-X-0---0-X-3|--3-X-0-0-0-X-2|--2-X-2-2-2-2-2|
E|0-0-X-2---2-X-3|--3-X-2---2-X-0|--0-X-2-2-2-X-3|--3-X-3-3-3-3-3|
  1 + 2 + 3 + 4 + 1 + 2 + 3 + 4 + 1 + 2 + 3 + 4 + 1 + 2 + 3 + 4 + 

CHORUS

  G5      C5       G5      F5       C5
e|----------------|----------------|---------------|----------------|
B|----------------|----------------|---------------|----------------|
G|--------5-5-5-55|----------------|5-5-5-5-5-5-5-5|5-5-5-5-5-5-5-55|     X2
D|5-5-5-555-5-5-55|5-5-5-553-3-3-33|5-5-5-5-5-5-5-5|5-5-5-5-5-5-5-55|
A|5-5-5-553-3-3-33|5-5-5-553-3-3-33|3-3-3-3-3-3-3-3|3-3-3-3-3-3-3-33|
E|3-3-3-33--------|3-3-3-331-1-1-11|---------------|----------------|
  1 + 2 +a3 + 4 +a 1 + 2 +a3 + 4 +a 1 + 2 + 3 + 4 + 1 + 2 + 3 + 4 +a


e|----------------|----------------|---------------|---------------|
B|----------------|----------------|---------------|---------------|
G|--------5-5-5-55|----------------|5-5-5-5-5-5-5-5|5-5-5-5-5------|   (chorus before
D|5-5-5-555-5-5-55|5-5-5-553-3-3-33|5-5-5-5-5-5-5-5|5-5-5-5-5------|     bridge plays 
A|5-5-5-553-3-3-33|5-5-5-553-3-3-33|3-3-3-3-3-3-3-3|3-3-3-3-3------|     C5 chord all 
E|3-3-3-33--------|3-3-3-331-1-1-11|---------------|---------------|     the way thru 
  1 + 2 +a3 + 4 +a 1 + 2 +a3 + 4 +a 1 + 2 + 3 + 4 + 1 + 2 + 3 + 4 +      the measure)

BRIDGE

  G                               C
e|3-3-3-3-3-3-3-3|3-3-3-3-3-3-3-3|3-3-3-3-3-3-3-3|3-3-3-3-3-3-3-3|
B|3-3-3-3-3-3-3-3|3-3-3-3-3-3-3-3|3-3-3-3-3-3-3-3|3-3-3-3-3-3-3-3|
G|0-0-0-0-0-0-0-0|0-0-0-0-0-0-0-0|0-0-0-0-0-0-0-0|0-0-0-0-0-0-0-0|      X5
D|0-0-0-0-0-0-0-0|0-0-0-0-0-0-0-0|2-2-2-2-2-2-2-2|2-2-2-2-2-2-2-2|
A|2-2-2-2-2-2-2-2|2-2-2-2-2-2-2-2|3-3-3-3-3-3-3-3|3-3-3-3-3-3-3-3|
E|3-3-3-3-3-3-3-3|3-3-3-3-3-3-3-3|0-0-0-0-0-0-0-0|0-0-0-0-0-0-0-0|
  1 + 2 + 3 + 4 + 1 + 2 + 3 + 4 + 1 + 2 + 3 + 4 + 1 + 2 + 3 + 4 +


END on G, then play it twice more whenever you so please.


SONG ORDER:
INTRO
VERSE
CHORUS
VERSE
CHORUS
BRIDGE
END


i woke up again
sun's shining for once
think i'll think about my life
or maybe i'll just blow it off
it's not like it matters
tomorrow will come soon enough
to knock me right back on my ass
guess i'll have to take another for granted
same damn day for eighteen years
wait i take that back, let's make it nineteen now
just another face for you to forget
but that's the usual
let's keep it casual
the days they are dying
along with my life
tried this sh*t ten times before
i still can't get it right
i saw you again
you're just as blind as before
won't you take your eyes out of the back of your head
so maybe i can be a little more misleading
same damn day for eighteen years
wait i take that back, let's make it nineteen now
just another face for you to forget
but that's the usual
let's keep it casual
come on, you can't be serious
let's pretend those words never left your lips
a bit more tragic, a little less insincere
you're talking to me, but "i'm a liar" is all i hear
            
Tabs too difficult? Try these video lessons and learn fast.




comments powered by Disqus
↑ Back to top | Tablatures and chords are parodies/interpretations of the original songs. You may use it for private study, scholarship, research or language learning purposes only