» » »

Backseat Goodbye, Hey Tabs (ver.1)

Artists:  A B C D E F G H I J K L M N O P Q R S T U V W X Y Z # 

Hey Tabs (ver.1)

Backseat Goodbye Tabs
 Rating:
4.6/5 (10 votes)
Hey lessons Tabs too difficult? Try these video lessons and learn fast
                "Hey"
Backseatgoodbye-Chad Sugg
Standard Tuning


Fingerpicked
e---------------|
B--3--3--3--5/3-|
G---------------|
D---------------|
A-----2--3--5/3-|
E--3------------|
"Hey I think you're cute..."


e-----------3-----3/2--------2---------|
B--3--3--3-----3-------3--------3----3-|
G-------------------------0-------0----|
D--------------------------------------|
A-----2--3-----------------------------|
E--3-----------------------------------|
"We could talk for hours..."


There are a few other different variations i do,
but these are the main riffs i use.
            
Submit corrections

comments powered by Disqus
↑ Back to top | Backseat Goodbye Tabs for Hey. Lyrics for acoustic guitar and electric guitar. Tablatures and chords are parodies/interpretations of the original songs. You may use it for private study, scholarship, research or language learning purposes only