>
 >
Hello Yellow

Hello Yellow Guitar Tabs

Backseat Goodbye - Hello Yellow chords, tabs, tablatures, lyrics

Guitar lessons | Add/correct | Request | Top 50 tabs Artists:  A B C D E F G H I J K L M N O P Q R S T U V W X Y Z 0-9

Hello Yellow Guitar Tabs – Backseat Goodbye

CD, Sheet music, Poster

Do you like Hello Yellow? Share with your friends now
ChordsTabs
"Hello Yellow"

Capo on 3rd Fret
(Standard Tuning)

Intro
e----------------------------|
B----0-0-0-0-0-0-------------|
G----0-0-0-0-0-0-------------|
D----0-0-0-0-0-0----0--------|
A----2-2-2-2-2-2----2p0------|
E--3-3-3-3-3-3-3--3----------|

Verses
e----------------------------|
B----0-0-0-0-0-0-------------|
G----0-0-0-0-0-0-------------|
D----0-0-0-0-0-0-------------|
A--2-2-2-2-2-2-2-------------|
E--3-3-3-3-3-3-3-------------|


e----------------------------|
B----0-0-0-0-0-0-------------|
G----0-0-0-0-0-0-------------|
D--2-2-2-2-2-2-2-------------|
A--3-3-3-3-3-3-3-------------|
E----------------------------|


e----------------------------|
B----0-0-0-0-0-0-------------|
G----0-0-0-0-0-0-------------|
D----0-0-0-0-0-0----0--------|
A----2-2-2-2-2-2----2p0------|
E--3-3-3-3-3-3-3--3----------|

Choruses
e--3-3-3-3-3-3-3-------------|
B--3-3-3-3-3-3-3-------------|
G--0-0-0-0-0-0-0-------------|
D--0-0-0-0-0-0-0-------------|
A--2-2-2-2-2-2-2-------------|
E--3-3-3-3-3-3-3-------------|


e--3-3-3-3-3-3-3-------------|
B--3-3-3-3-3-3-3-------------|
G--0-0-0-0-0-0-0-------------|
D--2-2-2-2-2-2-2-------------|
A--3-3-3-3-3-3-3-------------|
E----------------------------|


~~LYRICS:~~

Hello, How are you?
I'm pretty sure we should be best friends.
I'll walk you to school.
And tell you "You look pretty." each new day.
We'll learn about philosophy by drawing on our arms.
And build ourselves an alright house made out of Uno cards.
They'll say we're unconventional and maybe a little crazy.
We'll ask them what's wrong with that, Yeah, We'll ask them what's wrong with that.
Hello, How are you? I'm pretty sure we should be best friends.
I'll walk you to the store.
And buy you fancy clothes and shiny pins.
We'll learn about biology by taking off our clothes.
And buy some yellow spraypaint to make a yellow brick road.
They'll say we're three dimensional and maybe a little lazy.
We'll ask them what's wrong with that, Yeah, We'll ask them what's wrong with that.
Hello, How are you?
I'm pretty sure that we should be best friends.
I'll walk you to the ocean.
And build you a castle of sand to live in.
We'll learn about geography by sleeping in the grass.
Our bodies'll twitch to wake us up when we fall asleep too fast.
They'll say we're unbelieveable and maybe a little trendy.
We'll ask them what's wrong with that, Yeah, We'll ask them what's wrong with that.
Hello, How are you?
I'm pretty sure you're pretty much all I need.





Comments


Popular Backseat Goodbye tabs & chords
New Version Of The Old Me Chords
32 Ways To Make You Smile Tabs
Encore! Encore! Tabs
Head In The Clouds Tabs
Raindrops Tabs
Red Balloon Tabs
Sidewalk Sing Along Tabs
Still Life Tabs
Tuesday Tabs
Under This Sky With You Tabs


Song lyrics



↑ Back to top | Tablatures and chords are parodies/interpretations of the original songs. You may use it for private study, scholarship, research or language learning purposes only
© 2014 AZChords.com Contact us | Privacy policy | DMCA | Add/correct tabs | Request tabs | Top 50 tabs