>
 >
New World

New World Guitar Tabs

Back-on - New World chords, tabs, tablatures, lyrics

Guitar lessons | Add/correct | Request | Top 50 tabs Artists:  A B C D E F G H I J K L M N O P Q R S T U V W X Y Z 0-9

New World Guitar Tabs – Back-on

CD, Sheet music, Poster

Do you like New World? Share with your friends now
ChordsTabsUkulele

Tuning: Dropped Db/C#

Back with my second Back-On tab.
This is, again, a pretty comprehensive tab. To see my previous work, check out Chain 
is another single by BACK-ON.
Rate and comment, if you please.

Part - Guitar(s) [Effect] (Start time - End time)
Got it? Good.

Genre: J-Rock/Nu Metal
Released: November 22nd, 2006

If you're confused as to where a guitar comes in, check the start time of the riff.

Guitar 1 - Shu
Guitar 2 - Kenji03

Intro - Guitar 1 [Distorted] (0:00 - 0:09)
eb|---------|
Bb|---------|
Gb|---------|
Db|----0----|
Ab|----0----|
Db|----0----|
To create the fade-in effect, play the chord with the volume dial at 0, then quickly 
it up to your preferred playing volume.

Intro - Guitar 2 [Distorted] (0:00 - 0:09)
eb|---------|
Bb|---------|
Gb|---------|
Db|---------|
Ab|---------|
Db|---------|

Intro Verse - Guitar 1 [Distorted] (0:09 - 0:24)
eb|-------------------------------|
Bb|-------------------------------| x3
Gb|----------------------5-5-5-5-5|
Db|0-0-0-7-7-7-7-5-5-5-5-5-5-5-5-5|
Ab|0-0-0-7-7-7-7-3-3-3-3-3-3-3-3-3|
Db|0-0-0-7-7-7-7-3-3-3-3----------|

eb|-------------------------------|
Bb|-------------------------------|
Gb|-------------------------------|
Db|0-0-0-7-7-7-7-5-5-7---0-1-1-1-1|
Ab|0-0-0-7-7-7-7-3-3-7---0-1-1-1-1|
Db|0-0-0-7-7-7-7-3-3-7---0-1-1-1-1|

Intro Verse - Guitar 2 [Distorted] (0:09 - 0:24)
eb|--------------------------8-8-8-8-8|
Bb|------10-10-10-10-8-8-8-8----------| x3
Gb|7-7-7---------------------5-5-5-5-5|
Db|------7--7--7--7--5-5-5-5----------|
Ab|5-5-5------------------------------|
Db|-----------------------------------|

eb|------------------------------------|
Bb|------10-10-10-10-8-8-10---6-6-8-8-8|
Gb|7-7-7-------------------------------|
Db|------7--7--7--7--5-5-7----3-3-5-5-5|
Ab|5-5-5-------------------------------|
Db|------------------------------------|

Verse 1 - Guitar 1 [Distorted] (0:24 - 0:51)
eb|-----------------------------------|
Bb|-----------------------------------| x4
Gb|--------------------------5-5-5-5-5|
Db|0-0---------7---10--------5-5-5-5-5|
Ab|0-0---------7---8---------3-3-3-3-3|
Db|0-0---------7---8------------------|
When Teeda says "...Dreams" on the second repeat, omit the first two open chords.

eb|------------------------------------|
Bb|------------------------------------| x4
Gb|-----------------------------5-5-5-5|
Db|0-1-0---------7---10---------5-5-5-5|
Ab|0-1-0---------7---8----------3-3-3-3|
Db|0-1-0---------7---8-----------------|
On the final repeat, omit the last 4 chords.

Verse 1 - Guitar 2 [Distorted] (0:36 - 0:51)
eb|---------|
Bb|---------|
Gb|---------|
Db|----0----|
Ab|----0----|
Db|----0----|
Same effect as intro.

There's another quiet part in the background played by Guitar 2. Currently working that out.

Chorus - Guitar 1 + 2 [Distorted] (0:51 - 1:18)
eb|---------------------------------------------------------------|
Bb|---------------------------------------------------------------|
Gb|3-3-3-3-3-3-3-3-5-5-5-5-5-5-5-5--------------------------------|
Db|3-3-3-3-3-3-3-3-5-5-5-5-5-5-5-5-3-3-3-3-3-3-3-3-0-0-0-0-0-0-0-0|
Ab|1-1-1-1-1-1-1-1-3-3-3-3-3-3-3-3-3-3-3-3-3-3-3-3-0-0-0-0-0-0-0-0|
Db|--------------------------------3-3-3-3-3-3-3-3-0-0-0-0-0-0-0-0|

eb|---------------------------------------------------------------|
Bb|---------------------------------------------------------------|
Gb|3-3-3-3-3-3-3-3-5-5-5-5-5-5-5-5-7-7-7-7-7-7-7-7-10-10-10-9-----|
Db|3-3-3-3-3-3-3-3-5-5-5-5-5-5-5-5-7-7-7-7-7-7-7-7-10-10-10-------|
Ab|1-1-1-1-1-1-1-1-3-3-3-3-3-3-3-3-5-5-5-5-5-5-5-5-8--8--8--7-----|
Db|---------------------------------------------------------------|

eb|---------------------------------------------------------------|
Bb|---------------------------------------------------------------|
Gb|3-3-3-3-3-3-3-3-5-5-5-5-5-5-5-5--------------------------------|
Db|3-3-3-3-3-3-3-3-5-5-5-5-5-5-5-5-3-3-3-3-3-3-3-3-0-0-0-0-0-0-0-0|
Ab|1-1-1-1-1-1-1-1-3-3-3-3-3-3-3-3-3-3-3-3-3-3-3-3-0-0-0-0-0-0-0-0|
Db|--------------------------------3-3-3-3-3-3-3-3-0-0-0-0-0-0-0-0|

eb|-------------------------------------------------------|
Bb|-------------------------------------------------------| * See bottom
Gb|3-3-3-3-3-3-3-3-5-5-5-5-5-5-5-5-----------------5-5---5|
Db|3-3-3-3-3-3-3-3-5-5-5-5-5-5-5-5-----------------5-5---5|
Ab|1-1-1-1-1-1-1-1-3-3-3-3-3-3-3-3-----------------3-3---3|
Db|-------------------------------------------------------|

eb|---------|
Bb|---------|
Gb|---------|
Db|----0----|
Ab|----0----|
Db|----0----|
Intro effect.

*During the last 3 power chords, Guitar 2 plays the open chord above.

Verse 2 - Guitar 1 [Distorted] (1:18 - 1:47)
eb|-----------------------------------|
Bb|-----------------------------------| x3
Gb|--------------------------5-5-5-5-5|
Db|0-0---------7---10--------5-5-5-5-5|
Ab|0-0---------7---8---------3-3-3-3-3|
Db|0-0---------7---8------------------|

eb|-----------------------------------|
Bb|-----------------------------------|
Gb|-----------------------------------|
Db|0-0---------7---10----------1-1-0-1|
Ab|0-0---------7---8-----------1-1-0-1|
Db|0-0---------7---8-----------1-1-0-1|

eb|-----------------------------------|
Bb|-----------------------------------| x4
Gb|----------------------------5-5-5-5|
Db|0-1-0---------7---10--------5-5-5-5|
Ab|0-1-0---------7---8---------3-3-3-3|
Db|0-1-0---------7---8----------------|

Chorus - Guitar 1 [Distorted] (1:47 - 2:11)
eb|---------------------------------------------------------------|
Bb|---------------------------------------------------------------|
Gb|3-3-3-3-3-3-3-3-5-5-5-5-5-5-5-5--------------------------------|
Db|3-3-3-3-3-3-3-3-5-5-5-5-5-5-5-5-3-3-3-3-3-3-3-3-0-0-0-0-0-0-0-0|
Ab|1-1-1-1-1-1-1-1-3-3-3-3-3-3-3-3-3-3-3-3-3-3-3-3-0-0-0-0-0-0-0-0|
Db|--------------------------------3-3-3-3-3-3-3-3-0-0-0-0-0-0-0-0|

eb|---------------------------------------------------------------|
Bb|---------------------------------------------------------------|
Gb|3-3-3-3-3-3-3-3-5-5-5-5-5-5-5-5-7-7-7-7-7-7-7-7-10-10-10-9-----|
Db|3-3-3-3-3-3-3-3-5-5-5-5-5-5-5-5-7-7-7-7-7-7-7-7-10-10-10-------|
Ab|1-1-1-1-1-1-1-1-3-3-3-3-3-3-3-3-5-5-5-5-5-5-5-5-8--8--8--7-----|
Db|---------------------------------------------------------------|

eb|---------------------------------------------------------------|
Bb|---------------------------------------------------------------|
Gb|3-3-3-3-3-3-3-3-5-5-5-5-5-5-5-5--------------------------------|
Db|3-3-3-3-3-3-3-3-5-5-5-5-5-5-5-5-3-3-3-3-3-3-3-3-0-0-0-0-0-0-0-0|
Ab|1-1-1-1-1-1-1-1-3-3-3-3-3-3-3-3-3-3-3-3-3-3-3-3-0-0-0-0-0-0-0-0|
Db|--------------------------------3-3-3-3-3-3-3-3-0-0-0-0-0-0-0-0|

eb|-------------------------------|
Bb|-------------------------------|
Gb|3-3-3-3-3-3-3-3-5-5-5-5-5-5-5-5|
Db|3-3-3-3-3-3-3-3-5-5-5-5-5-5-5-5|
Ab|1-1-1-1-1-1-1-1-3-3-3-3-3-3-3-3|
Db|-------------------------------|

Breakdown - Guitar 1 + 2 [Distortion] (2:11 - 2:25)

eb|---------------------------------------------------------------|
Bb|---------------------------------------------------------------|
Gb|7-----7-7-----7-7-----5-5-------7-----7-7-----7-7-------5-5-5-5|
Db|7-0-0-7-7-0-0-7-7-0-0-5-5-0-1-3-7-0-0-7-7-0-0-7-7-0-0-0-5-5-5-5|
Ab|5-0-0-5-5-0-0-5-5-0-0-3-3-0-1-3-5-0-0-5-5-0-0-5-5-0-0-0-3-3-3-3|
Db|--0-0-----0-0-----0-0-----0-1-3---0-0-----0-0-----0-0-0--------|

eb|---------------------------------------------------------------|
Bb|---------------------------------------------------------------|
Gb|7-----7-7-----7-7-----5-5-------7-----7-7-----3-3-------5-5-5-5|
Db|7-0-0-7-7-0-0-7-7-0-0-5-5-0-1-3-7-0-0-7-7-0-0-3-3-------5-5-5-5|
Ab|5-0-0-5-5-0-0-5-5-0-0-3-3-0-1-3-5-0-0-5-5-0-0-1-1-------3-3-3-3|
Db|--0-0-----0-0-----0-0-----0-1-3---0-0-----0-0-1-1--------------|

Chorus - Guitar 1 [Distorted] (2:25 - 2:52)
eb|---------------------------------------------------------------|
Bb|---------------------------------------------------------------|
Gb|3-3-3-3-3-3-3-3-5-5-5-5-5-5-5-5--------------------------------|
Db|3-3-3-3-3-3-3-3-5-5-5-5-5-5-5-5-3-3-3-3-3-3-3-3-0-0-0-0-0-0-0-0|
Ab|1-1-1-1-1-1-1-1-3-3-3-3-3-3-3-3-3-3-3-3-3-3-3-3-0-0-0-0-0-0-0-0|
Db|--------------------------------3-3-3-3-3-3-3-3-0-0-0-0-0-0-0-0|

eb|---------------------------------------------------------------|
Bb|---------------------------------------------------------------|
Gb|3-3-3-3-3-3-3-3-5-5-5-5-5-5-5-5-7-7-7-7-7-7-7-7-10-10-10-9-----|
Db|3-3-3-3-3-3-3-3-5-5-5-5-5-5-5-5-7-7-7-7-7-7-7-7-10-10-10-------|
Ab|1-1-1-1-1-1-1-1-3-3-3-3-3-3-3-3-5-5-5-5-5-5-5-5-8--8--8--7-----|
Db|---------------------------------------------------------------|

eb|---------------------------------------------------------------|
Bb|---------------------------------------------------------------|
Gb|3-3-3-3-3-3-3-3-5-5-5-5-5-5-5-5--------------------------------|
Db|3-3-3-3-3-3-3-3-5-5-5-5-5-5-5-5-3-3-3-3-3-3-3-3-0-0-0-0-0-0-0-0|
Ab|1-1-1-1-1-1-1-1-3-3-3-3-3-3-3-3-3-3-3-3-3-3-3-3-0-0-0-0-0-0-0-0|
Db|--------------------------------3-3-3-3-3-3-3-3-0-0-0-0-0-0-0-0|

eb|-------------------------------|
Bb|-------------------------------|
Gb|3-3-3-3-3-3-3-3-5-5-5-5-5-5-5-5|
Db|3-3-3-3-3-3-3-3-5-5-5-5-5-5-5-5|
Ab|1-1-1-1-1-1-1-1-3-3-3-3-3-3-3-3|
Db|-------------------------------|

Outro - Guitar 1 [Distorted] (2:52 - 3:11)
eb|-------------------------------|
Bb|-------------------------------| x3
Gb|----------------------5-5-5-5-5|
Db|0-0-0-7-7-7-7-5-5-5-5-5-5-5-5-5|
Ab|0-0-0-7-7-7-7-3-3-3-3-3-3-3-3-3|
Db|0-0-0-7-7-7-7-3-3-3-3----------|

eb|-------------------------------|
Bb|-------------------------------|
Gb|-------------------------------|
Db|0-0-0-7-7-7-7-5-5-7---0-1-1-1-1|
Ab|0-0-0-7-7-7-7-3-3-7---0-1-1-1-1|
Db|0-0-0-7-7-7-7-3-3-7---0-1-1-1-1|

Outro - Guitar 2 [Distorted] (2:52 - 3:11)
eb|--------------------------8-8-8-8-8|
Bb|------10-10-10-10-8-8-8-8----------| x3
Gb|7-7-7---------------------5-5-5-5-5|
Db|------7--7--7--7--5-5-5-5----------|
Ab|5-5-5------------------------------|
Db|-----------------------------------|

eb|------------------------------------|
Bb|------10-10-10-10-8-8-10---6-6-8-8-8|
Gb|7-7-7-------------------------------|
Db|------7--7--7--7--5-5-7----3-3-5-5-5|
Ab|5-5-5-------------------------------|
Db|------------------------------------|


| /  slide up
| \  slide down
| h  hammer-on
| p  pull-off
| ~  vibrato
| +  harmonic
| x  Mute note
| () ghost note
| |_| palm mute





Comments


Popular Back-on tabs & chords
Flydom Chords
New World Chords
So Many Tears Chords
Chain Tabs
Chain Acousitc Intro Tabs
Chain Intro Tabs
Chain Intro 2 Tabs
Chain Ukulele
Flydom Ukulele
So Many Tears Ukulele


Song lyrics



↑ Back to top | Tablatures and chords are parodies/interpretations of the original songs. You may use it for private study, scholarship, research or language learning purposes only
© 2014 AZChords.com Contact us | Privacy policy | DMCA | Add/correct tabs | Request tabs | Top 50 tabs